Guitaretab - guitar tabs
Song name
# A B C D E F G H I J K L M N O P Q R S T U V W X Y Z

Cult - Sweet Soul Sister tab

Sweet Soul Sister- The Cult intro


I know I have the first parts right but the last part Im not so sure about

E-----------------------------------------------------------------------|
B-----------------------------------------------------------------------|
G---------------------------------7---8---7---5---7---5-----------------|
D--------------5h7-------------------------------------7---5-----------|
A-------------------------0-0-0-----------------------------------------|
E-----------------------------------------------------------------------|
[ Tab from: http://www.guitaretab.com/c/cult/56788.html ]
E-----------------------------------------------------------------------|
B-----------------------------------------------------------------------|
G---------------------------------7---8---7---5---7~--------------------|
D--------------5h7-----------------------------------------------------|
A-------------------------0-0-0-----------------------------------------|
E-----------------------------------------------------------------------|


E-----------------------------------------------------------------------|
B-----------------------------------------------------------------------|
G---------------------------------7---8---7---5---7---5-----------------|
D--------------5h7-------------------------------------7---------------|
A-------------------------0-0-0-----------------------------------------|
E-----------------------------------------------------------------------|

E---------------------------------------------|
B---------------------------------------------|
G---------------------------------------------|
D---------5--7------5-------------------------|
A-----------------7-----7--5------------------|
E--------------------------------5------------|

If you know the last part to this please tell me so I can post it back up

Squirreldude001@aol.com
Related for Sweet Soul Sister tab