Song name
# A B C D E F G H I J K L M N O P Q R S T U V W X Y Z

Cult - She Sells Danctuary tab

She sells sanctuary
The cult
Intro
e-----------------------------------------------------------|
b---10---8---7-8p7----------------------8p7-----------------|
g--------------------7--7---------7-----------7--7----------|
d--------------------------7--10----7-----------------------|
a-----------------------------------------------------------|
E-----------------------------------------------------------|

Verse/Chorus
e-----------------------------------------------------------|
b-----------------------------------------------------------|
g-------55555555---3333-------------------------------------|     x2
d-------77777777---5555---3333------------------------------|
a-------77777777---5555---5555------------------------------|
E-------------------------5555------------------------------|
pm.........................................................

Interlude
e---------------------------------------------------------|
b---10-10-10-10-10-10-10-10^--8-8-8-8---7-7-7-7---8-8-----|
g---------------------------------------------------------|   x2
d---------------------------------------------------------|
a---------------------------------------------------------|
E---------------------------------------------------------|

Thats basically it, a few ringing chords used in the chorus.
Tap to rate this tab
 
# A B C D E F G H I J K L M N O P Q R S T U V W X Y Z