Guitaretab - guitar tabs
Song name
# A B C D E F G H I J K L M N O P Q R S T U V W X Y Z

Cult - Black Angel tab

Black Angel, The Cult, tabbed by ďTomahawkĒ C A Owens
Email comments, questions to: banthamobile@hotmail.com

INTRO

    Am (strum quickly for one measure)
e|--0-0-0-0-0-0-0-0-0-0-0-0-0-0-0-0-0-0-0-0-0-0-0-0-0---|
B|--1-1-1-1-1-1-1-1-1-1-1-1-1-1-1-1-1-1-1-1-1-1-1-1-1---|
G|--2-2-2-2-2-2-2-2-2-2-2-2-2-2-2-2-2-2-2-2-2-2-2-2-2---|
D|--2-2-2-2-2-2-2-2-2-2-2-2-2-2-2-2-2-2-2-2-2-2-2-2-2---|
A|--0-0-0-0-0-0-0-0-0-0-0-0-0-0-0-0-0-0-0-0-0-0-0-0-0---|
E|------------------------------------------------------|

    Am
e|--0~~~~~----------------------------------------------|
B|--1~~~~~----------------------------------------------|
G|--2~~~~~----------------------------------------------|
D|--2~~~~~----------------------------------------------|
A|--0~~~~~----------------------------------------------|
E|------------------------------------------------------|


    Am
e|--0-0-0-0-0-0--0-0-0-0-0-0--0-0-0-0-0-0--0-0-0-0-0-0--|
B|--0h1-1-1-1-1--1-1-1-1-1p0--0h1-1-1-1-1--1-1-1-1-1p0--|
G|--0h2-2-2-2-2--2-2-2-2-2p0--0h2-2-2-2-2--2-2-2-2-2p0--|
D|--0h2-2-2-2-2--2-2-2-2-2p0--0h2-2-2-2-2--2-2-2-2-2p0--|
A|------------------------------------------------------|
E|------------------------------------------------------|
    Am
e|--0-0-0-0-0-0--0-0-0-0-0-0--0-0-0-0-0-0--0-0-0-0-0-0--|
B|--0h1-1-1-1p0--0h1-1-1-1p0--0h1-1-1-1p0--0h1-1-1-1p0--|
G|--0h2-2-2-2p0--0h2-2-2-2p0--0h2-2-2-2p0--0h2-2-2-2p0--|
D|--0h2-2-2-2p0--0h2-2-2-2p0--0h2-2-2-2p0--0h2-2-2-2p0--|
A|------------------------------------------------------|
E|------------------------------------------------------|

    Am
e|--0~~~~~~~~~---0--0-0-0-0---0--0-0-0-0---0--0-0-0-0---|
B|--1~~~~~~~~~---1--1-1-1-1---1--1-1-1-1---1--1-1-1-1---|
G|--2~~~~~~~~~---2--2-2-2-2---2--2-2-2-2---2--2-2-2-2---|
D|--2~~~~~~~~~---2--2-2-2-2---2--2-2-2-2---2--2-2-2-2---|
A|--0~~~~~~~~~---0--0-0-0-0---0--0-0-0-0---0--0-0-0-0---|
E|------------------------------------------------------|

    Am
e|--0~~~~~~~~~---0--0-0-0-0---0--0-0-0-0---0--0-0-0-0---|
B|--1~~~~~~~~~---1--1-1-1-1---1--1-1-1-1---1--1-1-1-1---|
G|--2~~~~~~~~~---2--2-2-2-2---2--2-2-2-2---2--2-2-2-2---|
D|--2~~~~~~~~~---2--2-2-2-2---2--2-2-2-2---2--2-2-2-2---|
A|--0~~~~~~~~~---0--0-0-0-0---0--0-0-0-0---0--0-0-0-0---|
E|------------------------------------------------------|


VERSE (WITH RIFF A AND RIFF B)

Am             G5
The fugitive has been away so long 
                     Am
A thousand years and now he thinks of home 
                 G5
The Long Men are waiting in the wings 
                       Am
To put him in chains upon his return 
              G5
Emptiness his bitterness is gone 
F                 Am
Journey on to the Eternal Reward 


RIFF A (2X)
    Am
e|--0--0-0-0-0---0--0-0-0-0---0--0-0-0-0---0--0-0-0-0---|
B|--1--1-1-1-1---1--1-1-1-1---1--1-1-1-1---1--1-1-1-1---|
G|--2--2-2-2-2---2--2-2-2-2---2--2-2-2-2---2--2-2-2-2---|
D|--2--2-2-2-2---2--2-2-2-2---2--2-2-2-2---2--2-2-2-2---|
A|--0--0-0-0-0---0--0-0-0-0---0--0-0-0-0---0--0-0-0-0---|
E|------------------------------------------------------|

    G5
e|--3--3-3-3-3---3--3-3-3-3---3--3-3-3-3---3--3-3-3-3---|
B|--3--3-3-3-3---3--3-3-3-3---3--3-3-3-3---3--3-3-3-3---|
G|--0--0-0-0-0---0--0-0-0-0---0--0-0-0-0---0--0-0-0-0---|
D|--0--0-0-0-0---0--0-0-0-0---0--0-0-0-0---0--0-0-0-0---|
A|--2--2-2-2-2---2--2-2-2-2---2--2-2-2-2---2--2-2-2-2---|
E|--3--3-3-3-3---3--3-3-3-3---3--3-3-3-3---3--3-3-3-3---|

    G5
e|--3--3-3-3-3---3--3-3-3-3---3--3-3-3-3---3--3-3-3-3---|
B|--3--3-3-3-3---3--3-3-3-3---3--3-3-3-3---3--3-3-3-3---|
G|--0--0-0-0-0---0--0-0-0-0---0--0-0-0-0---0--0-0-0-0---|
D|--0--0-0-0-0---0--0-0-0-0---0--0-0-0-0---0--0-0-0-0---|
A|--2--2-2-2-2---2--2-2-2-2---2--2-2-2-2---2--2-2-2-2---|
E|--3--3-3-3-3---3--3-3-3-3---3--3-3-3-3---3--3-3-3-3---|

    Am
e|--0--0-0-0-0---0--0-0-0-0---0--0-0-0-0---0--0-0-0-0---|
B|--1--1-1-1-1---1--1-1-1-1---1--1-1-1-1---1--1-1-1-1---|
G|--2--2-2-2-2---2--2-2-2-2---2--2-2-2-2---2--2-2-2-2---|
D|--2--2-2-2-2---2--2-2-2-2---2--2-2-2-2---2--2-2-2-2---|
A|--0--0-0-0-0---0--0-0-0-0---0--0-0-0-0---0--0-0-0-0---|
E|------------------------------------------------------|


RIFF B (1X)

    F
e|--1--1-1-1-1---1--1-1-1-1---1--1-1-1-1---1--1-1-1-1---|
B|--1--1-1-1-1---1--1-1-1-1---1--1-1-1-1---1--1-1-1-1---|
G|--2--2-2-2-2---2--2-2-2-2---2--2-2-2-2---2--2-2-2-2---|
D|--3--3-3-3-3---3--3-3-3-3---3--3-3-3-3---3--3-3-3-3---|
A|--3--3-3-3-3---3--3-3-3-3---3--3-3-3-3---3--3-3-3-3---|
E|------------------------------------------------------|

    Am
e|--0--0-0-0-0---0--0-0-0-0---0--0-0-0-0---0--0-0-0-0---|
B|--1--1-1-1-1---1--1-1-1-1---1--1-1-1-1---1--1-1-1-1---|
G|--2--2-2-2-2---2--2-2-2-2---2--2-2-2-2---2--2-2-2-2---|
D|--2--2-2-2-2---2--2-2-2-2---2--2-2-2-2---2--2-2-2-2---|
A|--0--0-0-0-0---0--0-0-0-0---0--0-0-0-0---0--0-0-0-0---|
E|------------------------------------------------------|


CHORUS 

RIFF C (2X)

    Itís a  

    C				G
e|--0--0-0-0-0---0--0-0-0-0---3--3-3-3-3---3--3-3-3-3---|
B|--1--1-1-1-1---1--1-1-1-1---0--0-0-0-0---0--0-0-0-0---|
G|--0--0-0-0-0---0--0-0-0-0---0--0-0-0-0---0--0-0-0-0---|
D|--2--2-2-2-2---2--2-2-2-2---0--0-0-0-0---0--0-0-0-0---|
A|--3--3-3-3-3---3--3-3-3-3---2--2-2-2-2---2--2-2-2-2---|
E|----------------------------3--3-3-3-3---3--3-3-3-3---|
    long way               to go              That Black

    F                         Am
e|--1--1-1-1-1---1--1-1-1-1---0--0-0-0-0---0--0-0-0-0---|
B|--1--1-1-1-1---1--1-1-1-1---1--1-1-1-1---1--1-1-1-1---|
G|--2--2-2-2-2---2--2-2-2-2---2--2-2-2-2---2--2-2-2-2---|
D|--3--3-3-3-3---3--3-3-3-3---2--2-2-2-2---2--2-2-2-2---|
A|--3--3-3-3-3---3--3-3-3-3---0--0-0-0-0---0--0-0-0-0---|
E|------------------------------------------------------|
    Angel            at your side



[ Tab from: http://www.guitaretab.com/c/cult/90436.html ]
Am                G5
The Sirens call a sailor to die 
                             Am
Enchanted by the sound his desires have been found 
                G5
In his mind his life is rushing by 
                   Am
All this while the storm it rages on 

FILL  
            Am
e|--8P7-5---5~~~~|
B|--------5-5~~~~|
G|----------5~~~~|
D|----------7~~~~|
A|---------------|
E|---------------|

                           G5
Heís turning old, he shall never return 
F              Am
Sail on to the Eternal Reward 


EXTENDED CHORUS 

    Itís a  

    C				G
e|--0--0-0-0-0---0--0-0-0-0---3--3-3-3-3---3--3-3-3-3---|
B|--1--1-1-1-1---1--1-1-1-1---0--0-0-0-0---0--0-0-0-0---|
G|--0--0-0-0-0---0--0-0-0-0---0--0-0-0-0---0--0-0-0-0---|
D|--2--2-2-2-2---2--2-2-2-2---0--0-0-0-0---0--0-0-0-0---|
A|--3--3-3-3-3---3--3-3-3-3---2--2-2-2-2---2--2-2-2-2---|
E|----------------------------3--3-3-3-3---3--3-3-3-3---|
  1. long way              to go              That Black
  2. long way              to go              with that
  3. long way              to go              with the
  4. long way              to go              That Black

    F                         Am
e|--1--1-1-1-1---1--1-1-1-1---0--0-0-0-0---0--0-0-0-0---|
B|--1--1-1-1-1---1--1-1-1-1---1--1-1-1-1---1--1-1-1-1---|
G|--2--2-2-2-2---2--2-2-2-2---2--2-2-2-2---2--2-2-2-2---|
D|--3--3-3-3-3---3--3-3-3-3---2--2-2-2-2---2--2-2-2-2---|
A|--3--3-3-3-3---3--3-3-3-3---0--0-0-0-0---0--0-0-0-0---|
E|------------------------------------------------------|
 1. Angel             at your side
 2. Angel             at your side
 3. Reaper            at your side
 4. Angel             at your side




Am             G5
A fugitive has been away so long 
                     Am
A thousand years and now he thinks of home 
                 G5
The Long Men are waiting in the wings 
                       Am
To put him in chains upon his return 
              G5
Emptiness his bitterness is gone 
F                 Am
Journey on to the Eternal Reward 


HARP SOLO (ARRANGED FOR GUITAR), PART 1 (4X)
 (hint: use the pad of your middle finger to slowly and lightly
        Strum up the strings on the fast descending chords)
 
    F            Am           C      C/B   G
e|--1------0--1--0------------0-----0------------------3--|
B|---1------------1--------0---1-----1-----3----------3---|
G|----2------------2----2-------0-----0-----0--------0----|
D|-----3------------2------------2-----0-----0------0-----|
A|------3------------0------------3-----2-----2----2------|
E|---------------------------------------------3--3-------|


HARP SOLO (ARRANGED FOR GUITAR), PART 2 (1X)

R= rake
    R  R  R                 R  R  R                  R  R  
e|--5--5--3--3--------------3--3--1--1---------------1--3--|
B|--5--5--3---3---------3---3--3--1---1----------1---1--3--|
G|--5--5--4----4-------4-4--4--4--2----2--------2-2--2--4--|
D|--------------5-5---5-----------------3-3----3-----------|
A|---------------5---5-------------------3----3------------|
E|------------------3------------------------1-------------|
      Oh no never             Oh no never

    R                 R
e|--5--5--------------5--|
B|--5---5---------5---5--|
G|--5----5-------5-5--5--|
D|--------7-7---7--------|
A|---------7---7---------|
E|------------5----------|
  Oh no no, oh oh oh


EXTENDED CHORUS 

    Itís a  

    C				G
e|--0--0-0-0-0---0--0-0-0-0---3--3-3-3-3---3--3-3-3-3---|
B|--1--1-1-1-1---1--1-1-1-1---0--0-0-0-0---0--0-0-0-0---|
G|--0--0-0-0-0---0--0-0-0-0---0--0-0-0-0---0--0-0-0-0---|
D|--2--2-2-2-2---2--2-2-2-2---0--0-0-0-0---0--0-0-0-0---|
A|--3--3-3-3-3---3--3-3-3-3---2--2-2-2-2---2--2-2-2-2---|
E|----------------------------3--3-3-3-3---3--3-3-3-3---|
  1. long way              to go              That Black
  2. long way              to go              with that
  3. long way              to go              with the
  4. long way              to go              with that

    F                         Am
e|--1--1-1-1-1---1--1-1-1-1---0--0-0-0-0---0--0-0-0-0---|
B|--1--1-1-1-1---1--1-1-1-1---1--1-1-1-1---1--1-1-1-1---|
G|--2--2-2-2-2---2--2-2-2-2---2--2-2-2-2---2--2-2-2-2---|
D|--3--3-3-3-3---3--3-3-3-3---2--2-2-2-2---2--2-2-2-2---|
A|--3--3-3-3-3---3--3-3-3-3---0--0-0-0-0---0--0-0-0-0---|
E|------------------------------------------------------|
 1. Angel             at your side
 2. Angel             at your side
 3. Reaper            at your side

OUTRO

    Am                        G
e|--5--5-5-5-5---5--5-5-5-5---3--3-3-3-3---3--3-3-3-3---|
B|--5--5-5-5-5---5--5-5-5-5---3--3-3-3-3---3--3-3-3-3---|
G|--5--5-5-5-5---5--5-5-5-5---4--4-4-4-4---4--4-4-4-4---|
D|--7--7-7-7-7---7--7-7-7-7---5--5-5-5-5---5--5-5-5-5---|
A|--7--7-7-7-7---7--7-7-7-7---5--5-5-5-5---5--5-5-5-5---|
E|--5--5-5-5-5---5--5-5-5-5---3--3-3-3-3---3--3-3-3-3---|

 4. Angel             at your side               at your

    F                         Am
e|--1--1-1-1-1---1--1-1-1-1---0--0-0-0-0---0--0-0-0-0---|
B|--1--1-1-1-1---1--1-1-1-1---1--1-1-1-1---1--1-1-1-1---|
G|--2--2-2-2-2---2--2-2-2-2---2--2-2-2-2---2--2-2-2-2---|
D|--3--3-3-3-3---3--3-3-3-3---2--2-2-2-2---2--2-2-2-2---|
A|--3--3-3-3-3---3--3-3-3-3---0--0-0-0-0---0--0-0-0-0---|
E|------------------------------------------------------|
    side               itís a long                itís a

    Am                        G
e|--5--5-5-5-5---5--5-5-5-5---3--3-3-3-3---3--3-3-3-3---|
B|--5--5-5-5-5---5--5-5-5-5---3--3-3-3-3---3--3-3-3-3---|
G|--5--5-5-5-5---5--5-5-5-5---4--4-4-4-4---4--4-4-4-4---|
D|--7--7-7-7-7---7--7-7-7-7---5--5-5-5-5---5--5-5-5-5---|
A|--7--7-7-7-7---7--7-7-7-7---5--5-5-5-5---5--5-5-5-5---|
E|--5--5-5-5-5---5--5-5-5-5---3--3-3-3-3---3--3-3-3-3---|
    long, long, long      goodbye                itís a



    F                         Am
e|--1--1-1-1-1---1--1-1-1-1---0--0-0-0-0---0--0--|
B|--1--1-1-1-1---1--1-1-1-1---1--1-1-1-1---1--1--|
G|--2--2-2-2-2---2--2-2-2-2---2--2-2-2-2---2--2--|
D|--3--3-3-3-3---3--3-3-3-3---2--2-2-2-2---2--2--|
A|--3--3-3-3-3---3--3-3-3-3---0--0-0-0-0---0--0--|
E|-----------------------------------------------|
    Long, long, long      goodbye
Related for Black Angel tab