Guitaretab - guitar tabs
Song name
# A B C D E F G H I J K L M N O P Q R S T U V W X Y Z

Cult - King Contrary Man tab

Intro to king contraty man - The Cult

E----------------------------------------------------------------|
B----------------------------------------------------------------|
G----------------------------------------------------------------|
D----------------------------------------------------------------|
A------------0-1-2-----------0-1-2-------------0-1-20-0--0------|
E---0---3------------0---3------------0---3--------------3-3----|



E----------------------------------------------------------------|
B----------------------------------------------------------------|
G----------------------------------------------------------------|
D----------------------------------------------------------------|
A------------0-1-2-----------0-1-2-------------0-1-20-----------|
E---0---3------------0---3------------0---3---------------------|


[ Tab from: http://www.guitaretab.com/c/cult/96397.html ]
E----------------------------------------------------------------|
B----------------------------------------------------------------|
G----------------------------------------------------------------|
D----------------------------------------------------------------|
A------------0-1-2-----------0-1-2-------------0-1-20-0--0------|
E---0---3------------0---3------------0---3--------------3-3----|



E----------------------------------------------------------------|
B----------------------------------------------------------------|
G----------------------------------------------------------------|
D----------------------------------------------------------------|
A------------0-1-2-----------0-1-2-------------0-1-20-0--0------|
E---0---3------------0---3------------0---3--------------3-3----|



E----------------------------------------------------------------|
B----------------------------------------------------------------|
G----------------------------------------------------------------|
D----------------------------------------------------------------|
A--2-2--2-2--2-2-77-5--7-5-2-2---2-2---2-2-77-5--7-5-------------|
E--0-0--0-0--0-0-55-3--5-3-0-0---0-0---0-0-55-3--5-3-------------|
Related for King Contrary Man tab