Song name
# A B C D E F G H I J K L M N O P Q R S T U V W X Y Z

Cult - Dirty Little Rock Star tab

The Cult - Dirty Little Rock Star
2007 Born Into This 

Intro:
   E||---------------------------------|
   B||---------------------------------|
   G||---------------------------------|
   D||---------------------------------|
   A||---------------------------------|
   E||-5-7-7-7--5-7-7-7--5-7-7-7-10~---|

Main Riff:
   E||------------------------|
   B||----9-10-9--------------|
   G||----9-9--9--------------|
   D||----9-9--9--9/----------|
   A||----7-9--7--9/----------|
   E||------------7/----------|

Chorus:
   E||-------------------------|
   B||-------------------------|
   G||-------------------------|
   D||-9-----7-----6-----5-----|
   A||-9-----7-----6-----5-----|
   E||-7-----5-----4-----3-----|


\---------\ulisses/---------/
Tap to rate this tab
# A B C D E F G H I J K L M N O P Q R S T U V W X Y Z