Song name
# A B C D E F G H I J K L M N O P Q R S T U V W X Y Z

Culture Beat - Mr Vain tab

Band - Culture Beat
Song - Mr Vain

Main riff (repeat):
Guitar:
e|------------------------------------------------------|
B|-----5-----5-------1-----1-----3-----3-------5-----5--|
G|--2-----2-------------------0-----0-----2-2-----2-----|
D|--------------3-3-----3-------------------------------|
A|------------------------------------------------------|
E|------------------------------------------------------|

Bass:
G|------------------------------------------------------|
D|------------------------------------------------------|
A|--0-----0-------------------------------0-------0-----|
E|--------------1-------1-----3-----3-------------------|


Interlude 1:
Guitar:
e|------------------------------------------------|
B|------------------------------------------------|
G|--2--2-2--2--2--2-2--2--2--2-2--2--2-2-2--2--2--|
D|------------------------------------------------|
A|------------------------------------------------|
E|------------------------------------------------|

Bass:                                              Continue...............
G|------------------------------------------------|-----------------------|
D|------------------------------------------------|-----------------------|
A|------------------------------------------------|-----------------------|
E|--5--5-5--5--5--5-5--5--5--5-5--5--5-5-5--5--5--|--5-5-5-5-5-5-5-5-5-5--|

Interlude 2:
Guitar:
e|--------------------------------|-----------------|--------------------------------|
B|--------------------------------|-----------------|--------------------------------|
g|--------------------------------|--2-22-2-2-22-2--|--2-22-2-2-22-2-2-22-2-222-2-2--|
D|--------------------------------|-----------------|--------------------------------|
A|--------------------------------|-----------------|--------------------------------|
E|--------------------------------|-----------------|--------------------------------|

Bass:
G|--------------------------------|-----------------|--------------------------------|
D|--------------------------------|-----------------|--------------------------------|
A|--------------------------------|-----------------|--------------------------------|
E|--5-55-5-5-55-5-5-55-5-555-5-5--|--5-55-5-5-55-5--|--5-55-5-5-55-5-5-55-5-555-5-5--|


Ending:
e|--12----10----12----10----12----10----12----10-----|
B|-----10----10----10----10----10----10----10----10--|
G|---------------------------------------------------|
D|---------------------------------------------------|
A|---------------------------------------------------|
E|---------------------------------------------------|
Tap to rate this tab
# A B C D E F G H I J K L M N O P Q R S T U V W X Y Z