Guitaretab - guitar tabs
Song name
# A B C D E F G H I J K L M N O P Q R S T U V W X Y Z

Culture Shock - Killing Fields tab

CULTURE SHOCK
TRANSPORTATION


 E-------------------------------------------------------------------------|
 B-------------------------------------------------------------------------|
 G-------------------------------------------------------------------------|
 D----9----9---9---9---7---7---7---7---5---5---5---5---5---5---5---5-------|
 A--7---7----7---7---5---5---5---5---3---3---3---3---2---3---2---2---------|
 E-------------------------------------------------------------------------|

 E-------------------------------------------------------------------------|
 B-------------------------------------------------------------------------|
 G-------------------------------------------------------------------------|
 D--9----9---9----9----9----9----9----9------------------------------------|
 A- 7--7---7---7----7----7----7----7--------Repeat-------------------------|
 E--0-------------------------------------------------------0--------------|

Chords
[ Tab from: http://www.guitaretab.com/c/culture-shock/124293.html ]
E  / / / / / /
D / / / / / /
C / / / / / /
D / / / / / /
E / / / / / /
D / / / / / /
 E-------------------------------------------------------------------------|
 B-------------------------------------------------------------------------|
 G-------------------------------------------------------------------------|
 D--5---5-- 5---5---5--- 5---5-- 5-----------------------------------------|
 A--3---3---2---2---3---3---2---2------------------------------------------|
 E-------------------------------------------------------------------------|

Later Riff

 E-------------------------------------------------------------------------|
 B-------------------------------------------------------------------------|
 G-------------------------------------------------------------------------|
 D--9-X-X-9-9-9-X-X-X-7-7-7-X-X-X-5-5-5-5-5--------------------------------|
 A--7-X-X-7-7-6-X-X-X-5-5-4-X-X-X-3-2-3-2-3--------------------------------|
 E-------------------------------------------------------------------------|
Advertisement will be closed in 10 seconds