Song name
# A B C D E F G H I J K L M N O P Q R S T U V W X Y Z

Cunninlynguists - South California tab

-------------------------------------------------------------------------------
                South California feat. Tunji - CunninLynguists
-------------------------------------------------------------------------------
Tabbed by: Robby
Email: rtown004@gmail.com

Guitar 1 (Chords)- Capo: 8th Fret
Guitar 2 (Riff)- No Capo
Tuning: Standard


Guitar 1

Intro
00:00 - 00:29

   G               C
e|-0--0-0--0-0-0-|-0--0-0--0-0-0-------|
B|-0--0-0--0-0-0-|-1--1-1--1-1-1--x3---|  x3
G|-0--0-0--0-0-0-|-0--0-0--0-0-0-------|
D|-0--0-0--0-0-0-|-2--2-2--2-2-2-------|
A|-2--2-2--2-2-0-|-3--3-3--3-3-3-------|
E|-3--3-3--3-3-0-|-0--0-0--0-0-0-------|

Verse
00:26

   E              C
e|-0--0-0--0-0-0--0--0-0--0-0-0--------|
B|-0--0-0--0-0-0--1--1-1--1-1-1--------|  x13
G|-0--0-0--0-0-0--0--0-0--0-0-0--------|
D|-2--2-2--2-2-0--2--2-2--2-2-2--------|
A|-2--2-2--2-2-0--3--3-3--3-3-3--------|
E|-0--0-0--0-0-0--0--0-0--0-0-0--------|

Chorus
01:24

   G     C        E
e|-0-----0-------0----|
B|-0-----1-------0----| x 1
G|-0-----0-------0----|
D|-0-----2-------2----|
A|-2-----3-------2----|
E|-3-----0-------0----|


Guitar 2

Intro

e|----6-6h8-6---------------|--6h8-6----------------------|
B|-6h8--------9-8--6---6-8--|--------9-8--6---6-8-----x4--|
G|-------------------8------|---------------8-------------|
D|--------------------------|-----------------------------|
A|--------------------------|-----------------------------|
E|--------------------------|-----------------------------|


Verse

e|-6h8-6-----------------6-------|---------------------|
B|-------9-8--6---6-8--8-----x4--|-8h9p8-------x4------|
G|--------------8----------------|-------8-7-----------|
D|-------------------------------|---------------------|
A|-------------------------------|---------------------|
E|-------------------------------|---------------------|


Order for Guitar 1:
Intro
Verse
Chorus
Verse x2
Chorus (End on G)

Order for Guitar 2:
Intro
Verse
Chorus
Verse
Part 2 of Intro

************************************

| /   slide up
| \   slide down
| h   hammer-on
| p   pull-off

************************************


Note about the tab:
For the chords, my general strumming pattern is down, down up, up down up, but it's the 
rhythm that is more important. During the chorus there's definitely more fast strumming, 
it takes some listening but isn't terribly difficult to get.

---------------------------------------------------------------------------------
CunninLynguists is a hip-hop group from the East Coast who have been making incredible 
music for over a decade. https://cunninlynguists.bandcamp.com/

You can also listen to their stuff along with other great artists at QN5.com
Tap to rate this tab
# A B C D E F G H I J K L M N O P Q R S T U V W X Y Z