Guitaretab - guitar tabs
Song name
# A B C D E F G H I J K L M N O P Q R S T U V W X Y Z

Cure - The Upstairs Room tab

-------------------------------------------------------------------------------
		     The Upstairs Room - The Cure
-------------------------------------------------------------------------------
Tabbed by: Gallagher2006

Tuning: Standard

Easy enough song, just takes a few run throughs to get it right

Intro: I think this is played on a keyboard

e|---------5-----------7---5-------------5----12-----8--10-------------------|
B|-----8-------5---------------5-----8-----------------------10--------------|
G|---------------------------------------------------------------------------|
D|---------------------------------------------------------------------------|
A|---------------------------------------------------------------------------|
E|---------------------------------------------------------------------------|
 And this is played alongside it
e|-----8-----12-----8--10---x2------15------19-----17-19-|
B|-10----10-----10--------------17------17-----17--------|
G|-------------------------------------------------------|
D|-------------------------------------------------------|
A|-------------------------------------------------------|
E|-------------------------------------------------------|


Guitar part in Bridge (listen to song for rhythm) 
[ Tab from: http://www.guitaretab.com/c/cure/106988.html ]
e|-12---12-12-12-12-x---15-----12--12-12-12-12-x---8------13--13-13-13-13----|
B|-12---12-12-12-12-x---15-----12--12-12-12-12-x---8--x4--13--13-13-13-13-x2-|
G|---------------------------------------------------------------------------|
D|---------------------------------------------------------------------------|
A|---------------------------------------------------------------------------|
E|---------------------------------------------------------------------------|

Guitar solo thatís repeated a number of times throughout song

e|---------------12------------------------------------------------------------------|
B|---------------------------------------------------13------------------------------|
G|14--14--14-14--------14-14--14-14------14-14-14-14---------------------------------|
D|-----------------------------------14-------------------12-12-12-12-12--14---------|
A|----------------------------------------------------------------------------12-----|
E|-----------------------------------------------------------------------------------|

e|---------------12------------------------------------------------------------------|
B|-----------------------------------------------------------------------------------|
G|14--14--14-14--------14-14--14-14----------------------14--------------------------|
D|-----------------------------------14---15-15-15-15-15-----12-12-12-12-12--14------|
A|-------------------------------------------------------------------------------12--|
E|-----------------------------------------------------------------------------------|


Easy, eh? ;)
Related for The Upstairs Room tab