Guitaretab - guitar tabs
Song name
# A B C D E F G H I J K L M N O P Q R S T U V W X Y Z
Home / C / Cure / The Top tab

Cure - The Top tab

-------------------------------------------------------------------------------
			     The Top - The Cure
-------------------------------------------------------------------------------
Tabbed by: Gallagher2006

Tuning: Standard

Intro - bass arranged for guitar

e|---------------------------------------------------------------------------|
B|---------2--------------2-----------2--------------------------------------|
G|---------0--------------0-----------0--------------------------------------| 
D|-----------------------------------------------------------x2--------------|  
A|------------------------------------------------4--4-4-4-------------------|
E|--3--3----------3--3-3--------3--3--------3--3-----------------------------| 


e|---------------------------------------------------------------------------|
B|---------2--------------2-----------2--------------------------------------|
G|---------0--------------0-----------0--------------------------------------|
D|-----------------------------------------------------------x2--------------|
A|------------------------------------------------4--4-4-4-------------------|
E|--0--0----------0--0-0--------0--0--------0--0-----------------------------|

Play this through twice, then again for the verse

Chorus - Arranged for guitar

e|-----------------------------------------------------------------------------------|
B|---------2----------2-----------2--------------------------------------------------|
G|---------0----------0-----------0-------------------5---------5------5-------------| 
D|----------------------------------------------------4---------4------4-----0-0-0-0-|x2
A|--0--0-------0--0-0------0---0------2-2-2-2--3--3-----3--3-3----3-3----3-3---------|
E|-----------------------------------------------------------------------------------| 

The harpsichord in the back ground plays this
[ Tab from: http://www.guitaretab.com/c/cure/113320.html ]
e|----------0------------------------------0--------0------------------------|
B|-----0-1------------1---3---------1-0-----------3--------------------------|
G|--2---------------2-------2-----------2-------------------x2---------------|
D|---------------------------------------------------------------------------|
A|---------------------------------------------------------------------------|
E|---------------------------------------------------------------------------|

And another keyboard (I think) plays this in the background twice

e|-----------------0-------0------0--------0---------------------------------|
B|-------0-1-----3-----------3----------3------------------------------------|
G|--2------------------------------------------------------------------------|
D|---------------------------------------------------------------------------|
A|---------------------------------------------------------------------------|
E|---------------------------------------------------------------------------|

Then the whole song repeats, then the outro where the harpsichord plays 
something like this

e|----15-----17-----13-------------------------------------------------------|
B|---------------------------------------------------------------------------|
G|---------------------------------------------------------------------------|
D|---------------------------------------------------------------------------|
A|---------------------------------------------------------------------------|
E|---------------------------------------------------------------------------|

The bass has a small variation to Bb, again arranged for guitar, played until fade

e|---------------------------------------------------------------------------------|
B|-------2------------2---------2-----------------------5-------5-------5----------|
G|-------0------------0---------0-----------------------3-------3-------3----------| 
D|---------------------------------------------------------------------------------|  
A|---------------------------------------4--4-4-4--1-1----1-1-1-----1-1----1-1-3-3-|
E|--3--3------3--3-3------3--3-----3--3--------------------------------------------| 

Pretty easy song. Havenít figured out how to make all those 
background noises yet, but if I do, Iíll update the tab

Cheers =]
Related for The Top tab