Song name
# A B C D E F G H I J K L M N O P Q R S T U V W X Y Z

Cure - Out Of This World tab

Help us improve GuitareTab! Take a short survey!
hi there,
i noticed, that the intro of this song wasnīt quite right, so iīll post it slightly
different because i think it sounds more like it does on the album. i have no idea what
some of these chords are called, but i watched roberts fingers while playing it and
tried to figure the rest out at home...
i think you all know the rhythm, if you donīt itīs not too hard to figure it out by
listening to the son


first part (play 3 times)
e|---------------------------------------------------|
B|---------------------------------------------------|
G|0-0-0-0-0-0-0-0-0-0-0-0-0-0-0-0-0------------------|
D|2-2-2-2-2-2-0-0-0-0-0-0-0-0-0-0-0------------------|
A|2-2-2-2-2-0-0-2-2-2-2-2-2-4-4-0-0------------------|
E|0-0-0-0-0-2-0-3-3-3-3-3-3-5-5-0-0------------------|

second part (play 3 times)

e|---------------------------------------------------|
B|7-7-7-7-7-7-7-7-7-7-7-7-7-7-7----------------------|
G|7-7-7-7-7-7-7-7-7-7-7-7-7-7-7----------------------|
D|0-0-0-0-0-0-0-0-5-5-5-5-5-5-5----------------------|
A|5-5-5-5-5-5-5-5-7-7-7-7-7-7-7----------------------|
E|7-7-7-7-7-7-7-7-0-0-0-0-0-0-0----------------------|

third part (play 3 times)

e|---------------------------------------------------|
B|7-7-7-7-7-5-5-5-3-3-3-3-3-3-3-3--------------------|
G|7-7-7-7-7-0-0-0-4-4-4-4-4-4-4-4--------------------|
D|7-7-7-7-7-5-5-5-4-4-4-4-4-4-4-4--------------------|
A|5-5-5-5-5-3-3-3-2-2-2-2-2-2-2-2--------------------|
E|---------------------------------------------------|

end of intro

e|0-0-0-0-0-0-0-0-0-0-0-0-0-0-0-0-0-------------------|
B|0-0-0-0-0-0-0-0-0-2-2-2-2-2-2-2-2-------------------|
G|2-2-2-2-2-2-2-2-2-2-2-2-2-2-2-2-2-------------------|
D|2-2-2-2-2-2-2-2-2-2-2-2-2-2-2-2-2-------------------|
A|0-0-0-0-0-0-0-0-0-0-0-0-0-0-0-0-0-------------------|
E|----------------------------------------------------|

thatīs it, i hope it works for you,
martin
Related for Out Of This World tab