Song name
# A B C D E F G H I J K L M N O P Q R S T U V W X Y Z

Cure - I Melt With You tab

intro (played on keyboard)
----1------------------|
------0------6-5-------|
-----------------5-----|  3x
-------------------7-5-|
-3-------3/8-----------|
-----------------------|

verse riff
Pushing forward using all my breath...

----------------------1-|
----------1--------1----|
-------0--------2-------|  till
----2--------3----------|  chorus
-3----------------------|
------------------------|

chorus

chords
 C  F
-0--1-|
-1--1-|
-0--2-|
-2--3-|
-3--3-|
-3--1-|

C                                 F
I'll stop the world and melt with you
C                                   F
You've seen the difference and it's getting better all the time
C                               F
There's nothing you and I won't do
C                       F
I'll stop the world and melt with you

----1------------------|
------0------6-5-------|
-----------------5-----|  2x
-------------------7-5-|
-3-------3/8-----------|
-----------------------|

play verse

then the bridge
------------------|
------------------|
-6-9-6--6-9-6--9--|
------------------|
-4-7-4--4-7-4--6--|
------------------|

then chorus

pause for the humming

play the chorus some more

end with
----1------------------|
------0------6-5-------|
-----------------5-----|  to fade
-------------------7-5-|  i believe
-3-------3/8-----------|
-----------------------|

there you go
Tap to rate this tab
 
# A B C D E F G H I J K L M N O P Q R S T U V W X Y Z