Song name
# A B C D E F G H I J K L M N O P Q R S T U V W X Y Z

Cure - Piggy In The Mirror tab

e|---------------|-------------------|-----------------------|-----------|
B|-------8-10--10|-9-10-9------------|--------8-10--9-10-9---|-----------|
G|10--10---------|--------10-9--9-7-9|-10--10--------------10|-9---------|
D|---------------|-------------------|-----------------------|-----------|
A|---------------|-------------------|-----------------------|-----------|
E|---------------|-------------------|-----------------------|-----------|

e|-------------|------------------|
B|-------------|------------------|
G|--------7----|------------------|
D|9--9-10----10|-9-10-9-7-6-------|
A|-------------|-------------7-5-7|
E|-------------|------------------|

e|-------------------5-7-8-7-5-7-8|-7--7-12--12-8|
B|-------------5-6-8--------------|--------------|
G|-------4-5-6--------------------|--------------|
D|---6-7--------------------------|--------------|
A|-8------------------------------|--------------|
E|--------------------------------|--------------|

Tap to rate this tab
# A B C D E F G H I J K L M N O P Q R S T U V W X Y Z