Song name
# A B C D E F G H I J K L M N O P Q R S T U V W X Y Z

Cure - Boys Dont Cry drum

c|X--------------------------------X|--
h|-xxxxxxxxxxxxxxxxxxxxxxxxxxx------|  | x2
s|--o---o---o---o---o---o---o o-o-o-|  |
b|0---0---0---0---0---0---0--------0|--

Verse
h|-xxxxxxxxxxxxxxxxxxxxxxxxxx|--
s|--o---o---o---o---o---o---o| | x4
b|0---0---0---0---0---0---0--|--

Chorus
c|X--------------------------------X|--
h|-xxxxxxxxxxxxxxxxxxxxxxxxxxx------|  | x2
s|--o---o---o---o---o---o---o o-o-o-|  |
b|0---0---0---0---0---0---0--------0|--

Verse
h|-xxxxxxxxxxxxxxxxxxxxxxxxxx|--
s|--o---o---o---o---o---o---o| | x4
b|0---0---0---0---0---0---0--|--

Chorus
c|X--------------------------------X|--
h|-xxxxxxxxxxxxxxxxxxxxxxxxxxx------|  | x2
s|--o---o---o---o---o---o---o o-o-o-|  |
b|0---0---0---0---0---0---0--------0|--

outro
c|X--------------------------------X|--
h|-xxxxxxxxxxxxxxxxxxxxxxxxxxx------|  | x2
s|--o---o---o---o---o---o---o o-o-o-|  |
b|0---0---0---0---0---0---0--------0|--
	
Tap to rate this tab
 
# A B C D E F G H I J K L M N O P Q R S T U V W X Y Z