Song name
# A B C D E F G H I J K L M N O P Q R S T U V W X Y Z

Cure - The Blood tab

The blood by The Cure

I am pretty sure this tab is 100% correct, so here you go.

h=hammer on
p=pull off
~=Vibrato

Solo
e|---------------------------------------------------------|
B|---------------------------------------------------------|
G|---------------------------------------------------------|
D|--4-4~~~5-4-2-4-5p4p2h4---0-2-4p2p0----------------------|
A|------------------------------------4---2----------------|
E|------------------------------------------5-3-5-3-2--0-2-|

e|--------------------------------------------------------|
B|------------------------------2-3---2---2h3p0h2--2h3h5--|
G|--------2h4---------------2-4-----4---------------------|
D|-4p2h4h5----5-4---5p4p2h5-------------------------------|

A|--------------------------------------------------------|
E|--------------------------------------------------------|

e|-2-3-5-7-9-10-9-7-9-10-9-7-9-7----7-------------7----------|
B|-------------------------------10---10-8-7-8-10---10-8-7---|
G|-----------------------------------------------------------|
D|-----------------------------------------------------------|

A|-----------------------------------------------------------|

E|-----------------------------------------------------------|
Tap to rate this tab
 
# A B C D E F G H I J K L M N O P Q R S T U V W X Y Z