Song name
# A B C D E F G H I J K L M N O P Q R S T U V W X Y Z

Cure - Plainsong tab

Hey I think this is a pretty good version of the Intro played Porl Thompson.

I hope you like it!!

Cheers
Fabrizio

-----------------------------------------------------------------------------|
-----------------------------------------------------------------------------|
17-17-17-----------------17-17-17--------------------------------------------|
---------17-15-14-15-14-----------17-15-15-14-15-17---17-17-17-17-19---------|
--------------------------------------------------------------------15-15-17-|
-----------------------------------------------------------------------------|


x------------------------------------------------------|
x------------------------------------------------------|
x------------------------------------------------------|
x------------------------------------------------------|
x--17-19-19---10-12-----12/15-15-17-17-17/19-19--------|
x------------------------------------------------------|

x------------------------------------------------------|
x------------------------------------------------------|
x------------------------------------------------------|
x------------------------------------------------------|
x-----10-12-----12/15-15-17-17-17/19-19----------------|
x------------------------------------------------------|

x------------------------------------------------------|
x------------------------------------------------------|
x------------------------------------------------------|
x------------------------------------------------------|
x-----10-12-----12/15-15-17-17-17/19-19----------------|
x------------------------------------------------------|

x-------------------------------------------------------|
x-------------------------------------------------------|
x-------------------------------------------------------|
x-------------------------------15-15-17-19-------------|
x-----10-12-----12/15-15/19-19---------------15-15-17---|
x-------------------------------------------------------|
Tap to rate this tab
# A B C D E F G H I J K L M N O P Q R S T U V W X Y Z