Song name
# A B C D E F G H I J K L M N O P Q R S T U V W X Y Z

Cure - Lovesong tab

The Cure

Lovesong

Tabbed By: Darren Bencosky


The song begins with an Amadd9 chord -7-
                                     -5-
                                     -5-
                                     -7-
                                     -0-
                                     -x-



Intro and verse chords are Am - G - F - E


Intro with Lead (Mild overdrive effect)


(Am)           (G)            (F)                   (E)

----0---0--0/0--0----0--0--0-------------------------|
----1---3--3/5--3----5--3--1---1---------------------|
-------------------------------2---------------------|
-----------------------------------------------------|
-----------------------------------------------------|
-----------------------------------------------------|

This riff is played 2X for every one measure of Am-G-F-E



CHORUS

Fmaj7    G*      Am    C

-0-------0-------0-----0----------------|
-1-------3-------1-----1----------------|
-2-------4-------2-----0----------------|
-3-------5-------2-----2----------------|
-3-------5-------0-----3----------------|
----------------------------------------|



PIANO INSTRUMENTAL Over Am - G - F - E

                                              3X Then

-----------------------------------------------I--------------------|
-10-12--13-13--12-10--12-12---10---------10----I----13----13-12-10--|
---------------------------------12--12-----12-I-10----10-----------|
-----------------------------------------------I--------------------|
-----------------------------------------------I--------------------|
-----------------------------------------------I--------------------|



SOLO (Over Am - G - F - E)


 (Am)            (G)          (F)            (E)

-/-7-7-7-7--------7-------I-/-7-7-7-7--------7--8--10--10---|
-----------8--------8-----I-----------8---------------------|
--------------5-------5-5-I--------------5------------------|
--------------------------I---------------------------------|
--------------------------I---------------------------------|
--------------------------I---------------------------------|



         (Am)            (G)             (F)              (E)        (Am)

---------------------------------------I---------------------------------|
-8-8-8-8--10-10-10-10-10---------------I---------------------------------|
--------------------------8--7----9--7-I---------------------------------|
-------------------------------10------I-10-10-10-10-10-10-9----------10-|
---------------------------------------I---------------------10-/-12--12-|
---------------------------------------I---------------------------------|
Tap to rate this tab
 
# A B C D E F G H I J K L M N O P Q R S T U V W X Y Z