Song name
# A B C D E F G H I J K L M N O P Q R S T U V W X Y Z

Cure - Signal To Noise tab

WELL. I KNOW THAT NOT ALL THE PEOPLE HEAR THIS SONG, BUT ITS SO GREAT.
AND NOBODY SUBMIT THE INTRO.

IM SO SURE THIS INTRO IS 70% EXACTLY (PLEASE DONT LAUGHT IM AMATEUR)
IS SO EASY JUST TRY TO AJUST THE RITM WHIT THE SONG

ANY CORRECTION SEND ME A E-MAIL gorevmachine018@hotmail.com

PLEASE RATE

INTRO


e------0---------------0-2---0----------0---------------0-2----2-3--|
B----3---3---3-------3-----3---3------3---3---3-------3------3------|
G--0-------2-------2----------------0-------2-------2---------------|
D-------------------------------------------------------------------|
A-------------------------------------------------------------------|
E-------------------------------------------------------------------|


e--2--3--2--------2---3---2------------------------------------------|
B-----------3----------------3---------------------------------------|
G--------------------------------------------------------------------|
D--------------------------------------------------------------------|
A--------------------------------------------------------------------|
E--------------------------------------------------------------------|


D            A
Nothing I do makes much sense
    Em               G              Bm
Say you don't really get me anymore
         Em              C         Em          G
I wonder if you ever did... if you ever did at all?

D              A
Nothing I want means a lot
    Em                G                 Bm
Say you don't understand me like before
             Em              C         Em          G
I'm not sure if you ever did... if you ever did at all?

D               A
Nothing I think has a point
    Em                   G              Bm
Say you don't quite believe me anymore
         Em               C         Em         G
I wonder if you ever did... if you ever did at all?

A                  G
Gets hard to guess the best way through
A                  Bm              Em
The thing to do if none of this is true
         C           Em
I wish I knew how to undo
            G
The doubt I hide inside
  A
I grew in you...

Play the vers chords in the solo: D A Em G
Em C Em G



SOLO

do a little bend on each 5 and a vibrato on 4 and 3

e--5-5-5-5-5-5-4-3---5-5-5-5-5-5-7b-9b-----5-5-5-5-5-5-4-3---4-3---|
B------------------------------------------------------------------|
G------------------------------------------------------------------|
D------------------------------------------------------------------|
A------------------------------------------------------------------|
E------------------------------------------------------------------|


e--5-5--7-7---9--10---13-13-13-13-13-13----------------------------|
B------------------------------------------------------------------|
G------------------------------------------------------------------|
D------------------------------------------------------------------|
A------------------------------------------------------------------|
E------------------------------------------------------------------|


D            A
Nothing I am shows the way
    Em                Em                  Bm
Say you don't seem to know me like before
             Em              C         Em          G
I'm not sure if you ever did... if you ever did at all?

    D            A
No, Nothing I do makes much sense
    Em               G              Bm
Say you don't really get me anymore
         Em              C         Em          G
I wonder if you ever did... if you ever did at all?


A                  G
Gets hard to guess the best way through
A                  Bm              Em
The thing to do if none of this is true
         C           Em
I wish I knew how to undo
           A
The knot I tied in you...
                  G
When more or less the yes and no
A                  Bm           Em
Is all for show it isn't really so...
              C                Em
Look high and low where did we go?
              G             A                D6
You moved too fast or maybe I just moved too slow?

Long Break...

D6              Em
There's so much noise...
        G               A
All the signal seems to fade away
Em       C
Too much noise...
         Em                G
Or could be this is how it always sounds
A                  D6
With nothing left?
Tap to rate this tab
 
# A B C D E F G H I J K L M N O P Q R S T U V W X Y Z