Cure - The Last Day Of Summer tab

Intro (4x)


 Parry Bamonte: acoustic guitar.

    Em                                            (first verse)
E|--------0-------0-------0-------0-------0-------0-------0--------|
B|-------0-------0-------0-------0-------3-------0-------3---------|
G|------0-------0-------0-------0-------0-------0-------0----------|
D|-----2-------2-------2-------2-------2-------2-------2-----------|
A|----2-------2-------2--------------------------------------------|
E|---0-------0-------0---------------------------------------------|

     Am
E|--------0--------0--------0-------0--------0---------0--------0--|
B|-------1--------1--------1-------0--------1---------0--------1---|
G|------2--------2--------2-------2--------2---------2--------2----|
D|-----2--------2--------2-------2--------2---------2--------2-----|
A|----0--------0--------0------------------------------------------|
E!-----------------------------------------------------------------|

    C
E|---------0--------0---------0-------0-------0--------0-------0---|
B|--------1--------1---------1-------0-------1--------0-------1----|
G|-------0--------0---------0-------0-------0--------0-------0-----|
D|------2--------2---------2-------2-------2--------2-------2------|
A|-----3--------3---------3----------------------------------------|
E|-----------------------------------------------------------------|

   G
E|-----------3--------3--------3---------------------------------------|
B|----------3--------3--------3----------------------------------------|
G|---------0--------0--------0-----------------------------------------|
D|--------0--------0--------0------------------------------------------|
A|-------2--------2--------2-------------------------------------------|
E|------3--------3--------3--------------------------------------------|

   D
E|-------------2-------2--------2------------------------------------------|
B|------------3-------3--------3-------------------------------------------|
G|-----------2-------2--------2--------------------------------------------|
D|---------0--------0--------0---------------------------------------------|
A|-------------------------------------------------------------------------|
E|-------------------------------------------------------------------------|

Robert Smith: lead guitar (clean)


E|---------------------------------------------------------------------------|
B|---------------------------------------------------------------------------|
G|---------------------------------------------------------------------------|
D|--12-------------9--10--9------------------10--9---------------------------|
A|------10-----12-----------10---------------------10------------------------|
E|---------------------------------10--12---------------12--10---------------|

E|----------------------------------------------------------------------------|
B|----------------------------------------------------------------------------|
G|----------------------------------------------------------------------------|
D|--12-------------9--10--9------------------10--9----------------------------|
A|------10-----12-----------10----------------------10------------10----------|
E|----------------------------------10--12--------------------12--------------|


Parry Bemonte (2x)

        Am                                              (second verse)

E|----------0------0------0------0-----0------0------0-----------------------|
B|---------1------1------1------0-----3------0------1------------------------|
G|--------2------2------2------2-----2------2------2-------------------------|
D|-------2------2------2------2-----2------2------2--------------------------|
A|------0------0------0------------------------------------------------------|
E|---------------------------------------------------------------------------|

        C
E|--------0-------0-------0------0------0-------0-------0--------------------|
B|--------1-------1-------1------0------3-------0------1---------------------|
G|-------0-------0-------0------0------0-------0------0----------------------|
D|------2-------2-------2------2------2-------2------2-----------------------|
A|-----3-------3-------3-----------------------------------------------------|
E|---------------------------------------------------------------------------|


       Em
E|-----------0-------0-------0-------0--------0-------0-----------------------|
B|----------0-------0-------3-------0--------3-------0------------------------|
G|---------0-------0-------0-------0--------0-------0-------------------------|
D|--------2-------2-------2-------2--------2-------2--------------------------|
A|-------2-------2-------2-------2--------2-------2---------------------------|
E|------0-------0-------0-------0--------0-------0----------------------------|


        G
E|-----------3-------3--------3-----------------------------------------------|
B|----------3-------3--------3------------------------------------------------|
G|---------0-------0--------0-------------------------------------------------|
D|--------0-------0--------0--------------------------------------------------|
A|-------2-------2--------2---------------------------------------------------|
E|------3-------3--------3----------------------------------------------------|


        D
E|---------2-------2-------2--------------------------------------------------|
B|--------3-------3-------3---------------------------------------------------|
G|-------2-------2-------2----------------------------------------------------|
D|------0-------0-------0-----------------------------------------------------|
A|----------------------------------------------------------------------------|
E|----------------------------------------------------------------------------|


Robert Smith lead guitar (clean)

E|----------------------------------------------------------------------------|
B|----------------------------------------------------------------------------|
G|----------------------------------------------------------------------------|
D|-----10-10-10-10-9--------10-10-10-10-9-12------10-9-10-9------9-10-9-------|
A|--------------------10-------------------------------------10---------10----|
E|----------------------------------------------------------------------------|

E|-------------------------------------------------------------------------|
B|-------------------------------------------------------------------------|
G|-------------------------------------------------------------------------|
D|-------12-12-12-10-9-10-9------------------------------------------------|
A|---------------------------12--------------------------------------------|
E|-------------------------------------------------------------------------|


 Parry bamonte (x2)

    F                                                     (chorus)
E|-------1-------1--------1------1--------------------------------------------|
B|------1-------1-------1-------1---------------------------------------------|
G|-----2-------2-------2-------2----------------------------------------------|
D|----3-------3-------3-------3-----------------------------------------------|
A|---3-------3-------3-------3------------------------------------------------|
E|--1-------1-------1-------1-------------------------------------------------|


    Am
E|-------0-------0--------0------0-------0--------0-------0-------------------|
B|------1-------1-------1-------0-------1--------0-------1--------------------|
G|-----2-------2-------2-------2-------2--------2-------2---------------------|
D|----2-------2-------2-------2-------2--------2-------2----------------------|
A|---0-------0-------0-------0-------0--------0-------0-----------------------|
E|----------------------------------------------------------------------------|


     Em
E|--------0------0------0------0-------0-------------------|
B|-------0------0------0------3-------0--------------------|
G|------0------0------0------0-------0---------------------|
D|-----2------2------2------2-------2----------------------|
A|----2------2------2------2-------2-----------------------|
E|---0------0------0------0-------0------------------------|



    D
E|---------2-------2-------2-----------------------------|
B|--------3-------3-------3------------------------------|
G|-------2-------2-------2-------------------------------|
D|------0-------0-------0--------------------------------|
A|-------------------------------------------------------|
E|-------------------------------------------------------|


Robert smith: lead guitar (clean)

E|----------------------------------------------------------------------------|
B|----------------------------------------------------------------------------|
G|----------------------------------------------------------------------------|
D|------------9------------------10-9-------------9-9-----10-12-10-9----------|
A|----10-12-----12-10------------------10-----10-12------------------12-10----|
E|----------------------10-12----------------------------------------------12-|


First solo: Robert Smith (drive)


E|----------------------------------------------------------------------|
B|----------------------------------------------------------------------|
G|--12-12-12-12-11-------12-12-11---------------------------------------|
D|-----------------12-------------12---------9-9-10-10-9-10--12-12------|
A|-----------------------------------------------------------------10---|
E|----------------------------------------------------------------------|


E|-------------------------------------------------------------------|
B|-------------------------------------------------------------------|
G|-------------------------------------------------------------------|
D|--------------------9-9-9-10-10-10-12-12-12------------------------|
A|-10-12-10-12-10-12---------------------------10-10-10--------------|
E|-------------------------------------------------------------------|

E|-------------------------------------------------------------------------|
B|-------------------------------------------------------------------------|
G|-10\12-12--12\14-14--14\16-16-16-16-------16-16-16-----------------------|
D|-------------------------------------14------------14--------------------|
A|-------------------------------------------------------------------------|
E|-------------------------------------------------------------------------|

E|----------------------------------------------------------------------------|
B|----------------------------------------------------------------------------|
G|----------------------------------------------------------------------------|
D|-9-9-10-10-9-10-12-12------------------------9-9-9-10-10-10-12-12-12--------|
A|----------------------10---10-12-10-12-10-12--------------------------------|
E|----------------------------------------------------------------------------|

E|----------------------------------------------------------------------|
B|----------------------------------------------------------------------|
G|-12-12-12-14-14-14-16-16-17-17-17-19-19-19----------------------------|
D|----------------------------------------------------------------------|
A|----------------------------------------------------------------------|
E|----------------------------------------------------------------------|

During the verses and the chorus, you can use the chords progression played by 
Bemonte in the intro.


Second solo: Robert Smith (drive)

E|----------------------------------------------------------------------------|
B|----------------------------------------------------------------------------|
G|----------------------------12----------------------------12----------------|
D|-12-14-12-14-12-14-12-14-12-----12-14-12-14-12-14-12-14-12------------------|
A|----------------------------------------------------------------------------|
E|----------------------------------------------------------------------------|

E|--------------------------------------------------------------------------|
B|-----------------------------15-13-12-------------------------------------|
G|--------------------------------------12----------------------------------|
D|-12-14-12-14-12-14-12-14-12-----------------------------------------------|
A|--------------------------------------------------------------------------|
E|--------------------------------------------------------------------------|

E|----------------------------------------------------------------------------|
B|----------------------------------------------------------------------------|
G|----------------------------------------------------------------------------|
D|--10-9----------------5h7-5-------------------------------------------------|
A|-------10-----5-5h7---------------------------------------------------------|
E|----------------------------------------------------------------------------|

E|----------------------------------------------------------------------------|
B|--------------------------------15--------------15--------------------------|
G|--10\12-12-12-14-14-14-16-16-16-----12-11-12-11----12-11-12-----------------|
D|------------------------------------------------------------12--------------|
A|----------------------------------------------------------------------------|
E|----------------------------------------------------------------------------|

E|-----------------------------------------------------|
B|-----------------------------------------------------|
G|-----------------------------------------------------|
D|--10\9-10-9-10-12------------------------------------|
A|-----------------------------------------------------|
E|-----------------------------------------------------|


That's all. Robert Smith uses to play this song with a black Fender jazzmaster, but I'm 
not sure if he used this guitar in studio.
For any doubt, write me.
Tap to rate this tab
 
# A B C D E F G H I J K L M N O P Q R S T U V W X Y Z