Song name
# A B C D E F G H I J K L M N O P Q R S T U V W X Y Z

Cure - Just Like Heaven tab

There were other intros out there that were pretty good but I like playing it this way 
because it seemed easier and pretty much accurate.

2x
e|-9-9-9-7-7-5-4-4-4---------------0---------------------|
B|-------------------7-7-5---------------------0---------|
G|-------------------------7-7-6-7---4-4-4-2-2-----------|
D|-------------------------------------------------------|
A|-------------------------------------------------------|
E|-------------------------------------------------------|

Once youve done that twice you do sort of the same thing backwards but slightly diffrent.

e|-----------------------4-5-5-5-7-7-9-10-10-12-12-10----|
B|-------------5-5-5-7-7---------------------------------|
G|-4-4-4-6-6-7-------------------------------------------|
D|-------------------------------------------------------|
A|-------------------------------------------------------|
E|-------------------------------------------------------|

Then you go on to do the first part once more.

e|-9-9-9-7-7-5-4-4-4---------------0---------------------|
B|-------------------7-7-5---------------------0---------|
G|-------------------------7-7-6-7---4-4-4-2-2-----------|
D|-------------------------------------------------------|
A|-------------------------------------------------------|
E|-------------------------------------------------------|

Well hoped it helped. Happy playing!
Tap to rate this tab
 
# A B C D E F G H I J K L M N O P Q R S T U V W X Y Z