Song name
# A B C D E F G H I J K L M N O P Q R S T U V W X Y Z

Cure - Lullaby tab

e-------X--------|---------------|-------X-------|
B-------X--------|---------------|---------------|
G-------X--------|---------------|-------X-------|   supposed to be 2 guitars
D-------X--------|---------------|---------------|   but i tried to make it
A-------X--------|---------------|-------X-------|   so that it could be
E-------X--------|---------------|---------------|   played on 1 guitar
          2                3              4




e-----------------4---------------------4-----------4---------------------4--|
B----------------------------------------------------------------------------|
G-----------------4---------------------4-----------4---------4---4-------4--|
D-----------------------------------2-------------------------------2--------|
A------------4------------4---4----------------4------------4---4------------|
E----------------------------------------------------------------------------|


e----------0----------------0--------------0-------------------0-------------|
B----------0----------------0--------------0-------------------0-------------|
G---------------4---4----------------------------4---4-----------------------|
D-------------2---2---2------------------------2---2---2---------------------|
A----0------------------------------0----------------------------------------|
E----------------------------------------------------------------------------|


e------------------4----------------------------------4----------------------|
B----------2---------------2---2-------2-------------------------2----2------|
G------------------4----------------4-----------------4----------------------|
D----------------------------------------------------------------------------|
A----------4---------------4---4-------4-------4-----------------4----4------|
E----------------------------------------------------------------------------|


e-----0----0----2----2----4-----------------------2----2----4----------------|
B-------------------------0-----2---------2-----------------0-----2--------0-|
G----------------------------------------------------------------------------|
D----------------------------------------------------------------------------|
A---------------0----0----------0----0------------0----0----------0----0-----|
E----------------------------------------------------------------------------|


e-----------------4----------------------------------4-----------------------|
B----------2---------------2---2-------2-------------------------2----2------|
G-----------------4-----------------4----------------4-----------------------|
D----------------------------------------------------------------------------|
A----------4---------------4---4-------4-------4-----------------4----4------|
E----------------------------------------------------------------------------|


e----0----0----2----2----4-----------------------2----2----4-----------------|
B------------------------0-----2---------2-----------------0-----2--------0--|
G----------------------------------------------------------------------------|
D----------------------------------------------------------------------------|
A--------------0----0----------0-----0-----------0----0----------0----0------|
E----------------------------------------------------------------------------|


e-----------------4---------------------4------------4---------------------4-|
B----------------------------------------------------------------------------|
G-----------------4---------4---4-------4------------4---------4---4-------4-|
D-----------------------------------2---------------------------------2------|
A-----------4-------------4---4-----------------4------------4---4-----------|
E----------------------------------------------------------------------------|


e----------0----------------0--------------0-------------------0--------------|
B----------0----------------0--------------0-------------------0--------------|
G------------------4---4---------------------------4---4----------------------|
D----------------2---2---2-----------------------2---2---2--------------------|
A----0------------------------------0-----------------------------------------|
E-----------------------------------------------------------------------------|


e-----------------4----------------------4-----------4--------------------4---|
B-----------------------------------------------------------------------------|
G-----------------4---------4---4-------4-----------4---------4---4-------4---|
D-----------------------------------2---------------------------------2-------|
A-----------4------------4---4----------------4------------4---4--------------|
E-----------------------------------------------------------------------------|


e----------0----------------0--------------0-------------------0-------------|
B----------0----------------0--------------0-------------------0-------------|
G--------------4---4----------------------------4---4------------------------|
D----------------2---2---2------------------------2---2---2------------------|
A---0------------------------------0-----------------------------------------|
E----------------------------------------------------------------------------|
Tap to rate this tab
 
# A B C D E F G H I J K L M N O P Q R S T U V W X Y Z