Song name
# A B C D E F G H I J K L M N O P Q R S T U V W X Y Z

Cure - 10-15 Saturday Night tab

----------------------------------------------------------------------------
			     10:15 Saturday Night - The Cure
----------------------------------------------------------------------------
Tabbed by: Rick
Email: rickmorin89@gmail.com

Tuning: Standard E

Intro:

e|--------------------------------------------------------------------------|
B|-10-10-10-10-10-10-10-10-----8--8--8--8--8--8--8--8----6-6-6-6-6-6-6-6----|
G|-10-10-10-10-10-10-10-10-----9--9--9--9--9--9--9--9----7-7-7-7-7-7-7-7----|
D|-12-12-12-12-12-12-12-12----10-10-10-10-10-10-10-10----8-8-8-8-8-8-8-8----|
A|-12-12-12-12-12-12-12-12----10-10-10-10-10-10-10-10----8-8-8-8-8-8-8-8----|
E|--------------------------------------------------------------------------|

e|--------------------------------------------------------------------------|
B|--8--8--8--8--8--8--8--8--------------------------------------------------|
G|--9--9--9--9--9--9--9--9--------------------------------------------------|
D|-10-10-10-10-10-10-10-10-----------------------------------(REPEAT 4X)----|
A|-10-10-10-10-10-10-10-10--------------------------------------------------|
E|--------------------------------------------------------------------------|

Bridge:

        A            G 
e|--5-5-5-5-5----3-3-3-3-3--------------------------------------------------|
B|--5-5-5-5-5----3-3-3-3-3--------------------------------------------------|
G|--6-6-6-6-6----4-4-4-4-4--------------------------------------------------|
D|--7-7-7-7-7----5-5-5-5-5-----------------------------------(REPEAT 4X)----|
A|--7-7-7-7-7----5-5-5-5-5--------------------------------------------------|
E|--5-5-5-5-5----3-3-3-3-3--------------------------------------------------|

Verse/Chorus: "Ten fifteen on a Saturday night..."

e|-----------------------------7-7-7-7-7-7-7-7-----<-faint-on this string---|
B|--10-10-10-10-10-10-10-10----8-8-8-8-8-8-8-8------------------------------|
G|--10-10-10-10-10-10-10-10----9-9-9-9-9-9-9-9------------------------------|
D|--10-10-10-10-10-10-10-10----9-9-9-9-9-9-9-9---------------(REPEAT 4X)----|
A|--8--8--8--8--8--8--8--8-----7-7-7-7-7-7-7-7------------------------------|
E|--------------------------------------------------------------------------|

-INTRO
-BRIDGE
-VERSE/CHORUS
-INTRO
-BRIDGE
-VERSE/CHORUS

Solo:

e|--------------------------------------------------------------------------|
B|--------------------------------------------------------------------------|
G|-7b8-7--5--7--5------------7b8-7--5--7--5---------------------------------|
D|-----------------7--5--7-------------------7--5--7------------------------|
A|--------------------------------------------------------------------------|
E|--------------------------------------------------------------------------|

e|--------------------------------------------------------------------------|
B|--------------------------------------------------------------------------|
G|-7b8-7--5--7--5-----------------------------------------------------------|
D|-----------------7--5--7---7b8-7--5--4------------------------------------|
A|--------------------------------------------------------------------------|
E|--------------------------------------------------------------------------|

e|-----/13~-----13~---------/12~-----12~------------------------------------|
B|-----/13~--------13~------/12~--------12~---------------------------------|
G|--/14~-----14~---------/12~-----12~---------------------------------------|
D|-----------------------------------------------------------(REPEAT 4X)----|
A|--------------------------------------------------------------------------|
E|--------------------------------------------------------------------------|

Outro:

e|--------------------------------------------------------------------------|
B|--------------------------------------------------------------------------|
G|--------------------------------------------------------------------------|
D|--------------------------------------------------------------------------|
A|--5-7-8-7-8----10-8-7-8-10----12-7-8-7-5-3----5-7-8-7-8----10-8-7-8-10----|
E|--------------------------------------------------------------------------|

e|--------------------------------------------------------------------------|
B|--------------------------------------------------------------------------|
G|--------------------------------------------------------------------------|
D|----------------0---------------------------------------------------------|
A|--12-7-8-7-5-3------------------------------------------------------------|
E|--------------------------------------------------------------------------|

Words by Robert Smith

10.15 on a Saturday night
and the tap drips under the strip light
and I'm sitting in the kitchen sink
and the tap drips
drip drip drip drip drip drip drip...

Waiting for the telephone to ring
and I'm wondering where she's been
and I'm crying for yesterday
and the tap drips
drip drip drip drip drip drip drip... 


************************************

| /   slide up
| \   slide down
| h   hammer-on
| p   pull-off
| ~   vibrato
| +   harmonic
| x   Mute note
| b   Bend
| pb  Pre-bend
| br  Bend release
| pbr Pre-bend release
| brb Bend release bend

************************************
Tap to rate this tab
# A B C D E F G H I J K L M N O P Q R S T U V W X Y Z