Song name
# A B C D E F G H I J K L M N O P Q R S T U V W X Y Z

Cure - M tab

M - The Cure - Seventeen Seconds
(Smith/Gallup/Hartley/Tolhurst)
Tab by gintareforever9


Intro/Main Riff:


   Em      C                       B
|------0---------0--|           |------------------| After the break the first time this is played,
|--0---0-0-1-1-1-0--|           |--4-4-4-4-4-4-4---| Play a C chord right before you start the riff
|--0---0-0-0-0-0-0--| [3xs]     |--4-4-4-4-4-4-4---|
|--2---2-2-2-2-2-2--|           |--4-4-4-4-4-4-4---|
|--2---2-2-3-3-3-3--|           |--2-2-2-2-2-2-2---|
|--0---0-0----------|           |------------------|


Main Lead:(in background)


|--0----2-0-2-0-2-0----0-2-0-2-0-2-0----0-2-0-2-0-2-0-3-3-3-2-2-2-2-2--|
|--5----5-5-5-5-5-5----5-5-5-5-5-5-5----5-5-5-5-5-5-5-4-4-4-4-4-4-4-4--|
|--4----4-4-4-4-4-4----4-4-4-4-4-4-4----4-4-4-4-4-4-4-5-5-5-5-5-5-5-5--|
|----------------------------------------------------------------------|
|----------------------------------------------------------------------|
|----------------------------------------------------------------------|


Chorus:

   C       B       Em      G       C       B
|--0---0-0-------------0---3-3-3-3-0---0-0----------|
|--1---1-1-4-4-4-4-0---0-0-0-0-0-0-1---1-1-4-4-4-4--|
|--0---0-0-4-4-4-4-0---0-0-0-0-0-0-0---0-0-4-4-4-4--|
|--2---2-2-4-4-4-4-2---2-2-0-0-0-0-2---2-2-4-4-4-4--|
|--3---3-3-2-2-2-2-2---2-2-2-2-2-2-3---3-3-2-2-2-2--|
|------------------0---0-0-3-3-3-3------------------|



Bridge A:

   Am              G               F#
|--0-----0---------0-----0---------0-----0---------0-----0----------|
|--1-----1---------0-----0---------0-----0---------0-----0----------|
|--2-2-2-2-2-2-2-2-4-----4---------3-----3---------3-----3----------|
|--2-2-2-2-2-2-2-2-5-5-5-5-5-5-5-5-4-4-4-4-4-4-4-4-4-4-4-4-4-4-4-4--|
|--0-0-0-0-0-0-0-0-5-5-5-5-5-5-5-5-4-4-4-4-4-4-4-4-4-4-4-4-4-4-4-4--|
|------------------3-3-3-3-3-3-3-3-2-2-2-2-2-2-2-2-2-2-2-2-2-2-2-2--|


Bridge B:

   Am              G               B
|--0-----0---------0-----0---------0-----0---------0-----0----------|
|--1-----1---------0-----0---------0-----0---------0-----0----------|
|--2-2-2-2-2-2-2-2-4-----4---------8-----8---------8-----8----------|
|--2-2-2-2-2-2-2-2-5-5-5-5-5-5-5-5-9-9-9-9-9-9-9-9-9-9-9-9-9-9-9-9--|
|--0-0-0-0-0-0-0-0-5-5-5-5-5-5-5-5-9-9-9-9-9-9-9-9-9-9-9-9-9-9-9-9--|
|------------------3-3-3-3-3-3-3-3-7-7-7-7-7-7-7-7-7-7-7-7-7-7-7-7--|


Bridge Keyboard A

|-------------------------|
|-------------------------|
|-------------------------|
|--9---7---5-7-5---9-8----|
|----------------------9--|
|-------------------------|


Bridge Keyboard B

|---------------------------------------------------------------|
|---------------------------------------------------------------|
|---------------------------------------------------------------|
|--10---9--7--12---10--9--13---------13-12-13----14----16--17~--|
|------------------------------14-------------------------------|
|---------------------------------------------------------------|


Order:

Intro
Main Riff+Main Lead [2xs]
Main Riff [2xs]
Chorus
Main Riff+Main Lead [2xs]
Main Riff [2xs]
Chorus
Bridge A + Bridge Keyboard A [3xs]
Bridge B + Bridge Keyboard B 
Main Riff [2xs]
Solo [main riff plays 6xs]


I am having difficulty figuring out the solo to the song but I will post it as soon as I can.
Tap to rate this tab
# A B C D E F G H I J K L M N O P Q R S T U V W X Y Z