Song name
# A B C D E F G H I J K L M N O P Q R S T U V W X Y Z

Cure - If Only Tonight We Could Sleep tab

-------------------------------------------------
  IF ONLY TONIGHT WE COULD SLEEP - The Cure
-------------------------------------------------
Tabbed by: truetais
E-mail: sadponyguerrilla@mail.ru


Tuning: standard


intro:
e|-----0-------0---------------------1-2----------|
B|-----0-------0---------------0-2-3-----3-2-0----|
G|-----2-------2-------------------------2--------|
D|---0-------0-------0-----(4)--------------------|
A|----------------------2------------2---2--------|
E|-4-------3-------2------------------------------|



Then an angel would come...
e|-----0-------0----------------------------------|
B|-----0-------0--------0-------------------------|
G|-----2-------2--------2-------------------------|
D|-----0-------0-----0--0-------------------------|
A|---2-2-----2-2---2----2-------------------------|
E|-0---0---0---0----------------------------------|



And the rain....
e|-----0------0-------------------1-2-------------|
B|-----0------0-------------0-2-3-----3-2-0-------|
G|-----2------2----2------------------2-----------|
D|---0-0----0-0----0---(4)------------------------|
A|-----2------2------2------------2---2-----------|
E|-0---0--3---3--2--------------------------------|
Tap to rate this tab
 
# A B C D E F G H I J K L M N O P Q R S T U V W X Y Z