Song name
# A B C D E F G H I J K L M N O P Q R S T U V W X Y Z

Cure - Friday Im In Love tab

Friday Im In Love "Solo" :

     riff intro

e|------0-2-0---0------------------0-------------10--10--12--10--------|
B|----3-------3-------7---7---7--------/12-------10--10--10--10--------|
G|--2-------------------7---7---7----------12----11--------------------|
D|---------------------------------------------------------------------|
A|---------------------------------------------------------------------|
E|---------------------------------------------------------------------|


e|--9---9---10--9---10--9---------------17--------15-------15----------|
B|--10--10--10--10--10--10-------15--------15--------15-------15----15-|
G|--9-------------------------16----16--------16--------16-------16----|
D|---------------------------------------------------------------------|
A|---------------------------------------------------------------------|
E|---------------------------------------------------------------------|


e|---14--14--14--14--9---10--10--10--12--12--15--15--14----------------|
B|---15--15--15--15--10--12--12--12--14--14--17--17--15----------------|
G|---14--14--14--14--9-------------------------------------------------|
D|---------------------------------------------------------------------|
A|---------------------------------------------------------------------|
E|---------------------------------------------------------------------|

In the last part of the song is the same but end when plays

e|---14--14--14--14--9---------------------------------------------|
B|---15--15--15--15--10---let ringing------------------------------|
G|---14--14--14--14--9---------------------------------------------|
D|-----------------------------------------------------------------|
A|-----------------------------------------------------------------|
E|-----------------------------------------------------------------|

rulassio@hotmail.com
Tap to rate this tab
# A B C D E F G H I J K L M N O P Q R S T U V W X Y Z