Song name
# A B C D E F G H I J K L M N O P Q R S T U V W X Y Z

Cure - Numb tab

Song: Numb 
Artist: The Cure
Album: Wild Mood Swings - 1996


"Oriantal" intro: 
e|----------------------------|
b|----------------------------|
g|---2----------2-------------|
d|---4----4--2-----4--2--4----|
a|---4------------------------|
e|----------------------------|



Main part (played all along the song...):
e|-------------------------------------------------------0--0--0---|
b|---2---2---0--------0---0-----------2---2---0------0---2--2--2---|
g|---2---2---2--------2---2---2-------2---2---2------2---2--2--2---|
d|---4---4---4--------4---4---4-------4---4---4------4---4--4--4---|
a|---5---5---5--------4---4---4-------5---5---5------4-------------|
e|-----------------------------------------------------------------|



Violin part (with the same guitar part in the background):
e|-----5---5-7---7-9---------5---5-7----14-12-14----|
b|---7---------------7-----7------------------------|
g|--------------------------------------------------|
d|--------------------------------------------------|
a|--------------------------------------------------|
e|--------------------------------------------------|


e|-----5---5-7---7-9---------5---5-7--7-14-16-17---14-16-17--|
b|---7---------------7-----7---------------------------------|
g|-----------------------------------------------------------|
d|-----------------------------------------------------------|
a|-----------------------------------------------------------|
e|-----------------------------------------------------------|



Riff (played 8 times from 3:24 to 3:48)
e|----5-5-5-5-4--------------|
b|---------------7-----------|
g|---------------------------|
d|---------------------------|
a|---------------------------|
e|---------------------------|


Intro:          0:00
Main Part:      0:07
Violin Part:    2:09
Main Part:      2:36 (with a violin solo and a background guitar. I only have the riff at 3:24)
Violin Part:    3:48
End release:    4:39


Enjoy!
beranger80@hotmail.com
Tap to rate this tab
# A B C D E F G H I J K L M N O P Q R S T U V W X Y Z