Guitaretab - guitar tabs
Song name
# A B C D E F G H I J K L M N O P Q R S T U V W X Y Z

Cure - A Reflection tab

#----------------------------------PLEASE NOTE---------------------------------#
#This file is the author's own work and represents their interpretation of the #
#song. You may only use this file for private study, scholarship, or research. #
Date: Fri, 8 Dec 95 12:31:21 EST
From: Winston Campbell 
Subject: A REFLECTION by The Cure

A Reflection

The opening instrumental for -Seventeen Seconds- is simply:

Riff A:
[ Tab from: ]
   A5        Bb        Gm         A5

E -5-------|-6------|--3-------|--5------||
B -5-------|-6------|-(3)------|--5------||
G -x-----5-|-7------|--3---6-3-|--x------||
D -7-------|-8------|--5-------|-(7)-----||
A -7---7---|-8------|--5-------|--7------||
E -5-------|-6------|--3-------|--5------||

(The number in the parenthesis is the note that is accented by the piano

Riff B:

   Fmaj7    F5

E -0------|-------||
B -1------|-------||
G -2------|-------||
D -3------|-3-----||
A -3------|-3-----||
E -1------|-1-----||

Play: Riff 1 (4x), Riff 2 (4x), Riff 1 (4x)
Related for A Reflection tab