Song name
# A B C D E F G H I J K L M N O P Q R S T U V W X Y Z

Cure - Burn tab

the cure - burn
tabbed by colin weadick
standard tuning

verse:
d5 c5 g5
--------0------------------------------------|
---3-----------------------------------------|
--2----0----0--------------------------------|
-0---------0---------------------------------|
------3--------------------------------------|
----------3----------------------------------|

chorus:
Bb5 C5 G5
--------0----------------------------------|
---3---------------------------------------|
--3----0----0------------------------------|
-----------0-------------------------------|
-1----3------------------------------------|
----------3--------------------------------|

Bridge (over the chorus chords)
------------------------------------------|
---10-10-8--(x3)--6-5-6-8-----------------|
-7----------------------------------------|
------------------------------------------|
------------------------------------------|
------------------------------------------|

-------------------------------------8-------|
--5--6--8--5-6-8--(x3)--5--5--8--5-6----(x3)-|
---------------------------------------------|
---------------------------------------------|
---------------------------------------------|
---------------------------------------------|

end
Tap to rate this tab
# A B C D E F G H I J K L M N O P Q R S T U V W X Y Z