Song name
# A B C D E F G H I J K L M N O P Q R S T U V W X Y Z

Cure - Friday Im In Love tab

Artist: The Cure
Song: Friday Im In Love
Album: Kiss Me, Kiss Me, Kiss Me

Tuning: E,A,D,G,B,e (standard)
Transcribed by Xombie
www.myspace.com/hereisnowhy

NOTE: these are Robert's acoustic parts. I didn't tab
out the electric parts from the album version of the song.
This tab is arranged for a solo acoustic.

My advice would be to improvise for the electric parts
if you plan to cover this song, as Robert dubs his own
lead parts over his rhythm riffs with the same acoustic
in album version, and the electrics are then layered
over top of the acoustic layers.

Also, the electric lead figures are played as accents to
to Robert's acoustic accents that he dubs over his rhythm
riff, this way you will be able to maintain a unique sound.


INTRO/Rhythm Figure 1

e-----0-2-0---0-0h2-2-2-2-0h2-2-----3-3---3-2-0---|
B---3-------3---3---3-3---3---3-3-3-3-----3-----3-|
G-0-------------2---2-----2---2-2-0-0---0-0-------|
D---------------0-------------0---0---------------|
A---------------------------------2---------------|
E---------------------------------3---------------|

Rhythm Fig.1 continued

e-0h2-2-2-0h2---/5-5-3p2---0-0h2-2-2-0h2-----3-3---3-2-0---|
B-3---3-3-----3--2-2-2-2-3---3---3-3-3---3-3-3-----3-----3-|
G-2---2----------2-2-2-2-----4---4---4---4-0-0---0-0-------|
D-0--------------2-2-2-2-----4---4---4-----0---------------|
A----------------------------2-------------2---------------|
E------------------------------------------3---------------|

e-0h2-2-2-3p2------|
B-3---3-------3-2~-|
G-2-------------2~-|
D-0----------------|
A------------------|
E------------------|

BREAKDOWN/BRIDGE (Saturday, wait... and Sunday always comes too late)

e-2-2--2-2-2--2-2-2--3--3-3-3--3-3-3-3--0-0-0h2--2-2-3p2-----|
B-3-3--3-3-3--3-3-3--0--0-0-0--0-0-0-0--3-3-3-3--3-3-3-3-3-3-|
G-4-4--4-4-4--4-4-4--0--0-0-0--0-0-0-0--2-2-2-2--2-2-2-2-2-2-|
D-4-4--4-4-4--4-4-4--0--0-0-0--0-0-0-0--0-0-0-0--0-0-0-0-0-0-|
A-2-2--2-2-2--2-2-2--2--2-2-2--2-2-2-2-----------------------|
E--------------------3--3-3-3--3-3-3-3-----------------------|

e-------------------|
B-0--2-2-2-3p2--2-3-|
G-2--2-2-2-2-2--2-2-|
D-2--2-2-2-2-2--2-2-|
A-0--0-0-0-0----0-0-|
E-------------------|

That's pretty much it, kids. You can figure out the structure by listening to the song 
put together you're own version. Besides, that's how good covers are made ;) Enjoy.

XOMBiE
Tap to rate this tab
 
# A B C D E F G H I J K L M N O P Q R S T U V W X Y Z