Song name
# A B C D E F G H I J K L M N O P Q R S T U V W X Y Z

Cure - Secrets tab

In article <1993May11.153021.23165@selway.umt.edu> you write:
SECRETS by The Cure

E--------------------------------------------
B------------------------------*-------------
G--------------------0-2-------0-------------
D--0-4-2-0---0-2---4-----4-2-0---4-2-0-------
A---2------4---------------------------4-0-2-
E--------------------------------------------

* bass plays this -8vb

verse chords X244XXX  and 355XXX

repeat above X2

E-----------------------------------------------------------------------------
B-----------------------------------------------------------------------------
G-------------------------------------0-2-4----2-4--------------------0-2-4---
D-----0-2-4-0-2-4-0-2-4-0-------0-2-4-------4-4---4-2-0-0--------0-2-4------4-
A--2-4--------------------2-2-4---------------------------4-2-2-4-------------
E-----------------------------------------------------------------------------

---------------
---------------
---------------
--2-0----------
------4-2-0-2--
---------------

elric@selway.umt.edu
please send specific requests, comments, corrections.

-- 
I am a deaths-head in your frock,
-Sam
Your sister is a beauty when she's naked, like my kid.
We are the dead.


-- 
I am a deaths-head in your frock,
-Sam
Your sister is a beauty when she's naked, like my kid.
We are the dead.
Tap to rate this tab
 
# A B C D E F G H I J K L M N O P Q R S T U V W X Y Z