Song name
# A B C D E F G H I J K L M N O P Q R S T U V W X Y Z

Cure - Seventeen Seconds tab

Artist: The Cure
-Album: Seventeen Seconds
--Song: Seventeen Seconds

Transcribed by Exo M7. 

For questions/comments/tab requests, the email is jd0922[at]yahoo[dot]com.

Standard tuning.

Guitar Part 1 (repeats entire song)

      Am              Fmaj7
1st:|----------------------------------|
2nd:|-1-1-1-1-1-1-1-1-0-0-0-0-0-0-0-0--|
3rd:|-2-2-2-0-0-2-2-2-2-2-2-2-2-2-2-2--|
4th:|-2-2-2-2-2-2-2-2-3-3-3-3-3-3-3-3--|
5th:|-0-0-0-0-0-0-0-0-3-3-3-3-3-3-3-3--|
6th:|-----------------1-1-1-1-1-1-1-1--|

Bass Part 1 (for guitar)

1st:|----------------------------------|
2nd:|----------------------------------|
3rd:|----------------------------------|
4th:|-2-----0-----2--------------------|
5th:|-----------------2^3--------------|
6th:|----------------------------------|

Bass Part 2 (for guitar)

1st:|----------------------------------|
2nd:|----------------------------------|
3rd:|----------------------------------|
4th:|----------------------------------|
5th:|-0-0-0-0-0-0-0-0------------------|
6th:|-----------------1-1-1-1-1-1-1-1--|

Bass Part 3 (for guitar)

1st:|----------------------------------|
2nd:|----------------------------------|
3rd:|----------------------------------|
4th:|-----------------------0----------|
5th:|-0---0-------0-------------3-2----|
6th:|-------3---3-----1---1------------|
Tap to rate this tab
# A B C D E F G H I J K L M N O P Q R S T U V W X Y Z