Guitaretab - guitar tabs
Song name
# A B C D E F G H I J K L M N O P Q R S T U V W X Y Z
Home / C / Cure / Trust tab

Cure - Trust tab

Drop D Tuning (e,B,G,D,A,D)

Intro

Piano for Guitar (Riff 1)
e||-------------|------------|-----------|--------------||
B||-------------|------------|-----------|--------------||
G||--2--------2-|-----3-2----|---------5-|-3-2-3-2-----||
D||----3--0-3---|-0-3-----3--|-7-8-7-8---|---------3---|| (x2)
A||-------------|------------|-----------|--------------||
D||-------0-----|-----3------|---5-------|-----3--------||

Piano for Guitar & 2nd Guitar (Riff 2)
e||----------------|-------------------|-------------------|
B||----------------|-------------------|-------------------|
G||--2--------2----|--------3-2--------|--------------5----|
D||----3--0-3------|---0--3------3-----|----7--8-7-8-------|
A||----------------|-------------------|-------------------|
D||-------0--------|--------3----------|-------5-----------|
 ||                                                        | _
e||-----------5--5-|------5-----5---5--|-----5-----3---3---|  |
B||---------6--6---|----6-----6---6----|---6-----3---3-----|  |
G||-------7--------|--7-----5----------|-5-----3-----------|  |=> Electric
D||----------------|-------------------|-------------------|  |   Guitar.
A||----------------|-------------------|-------------------|  |   Clean.
E||----------------|-------------------|-------------------| _| 
                 
e|--------------------------||
B|--------------------------||
G|--3-2--3--2----------2----||
D|------------3----------3--||
A|--------------------------||
D|-------3------------------||
 |                          || (x2)
e|-----3---------------3----||
B|---3-------6-------5--5---||
G|-3-------5---5---5-----5--||
D|-------3-------3----------||
A|--------------------------||
E|--------------------------||
[ Tab from: http://www.guitaretab.com/c/cure/4666.html ]
Riff 3
e|------------------|------------------|---------------------|---------------------|
B|------------------|------------------|---------------------|---------------------|
G|--5--3--2-----3-2-|--3--2------------|--2---------------2--|--0------------------|
D|------------------|-------3------0-3-|----3-----------3----|-----3----------3----|
A|--0---------------|--1---------------|--------------3------|-------5----3-5------|
D|------------------|------------------|--3-----3------------|--5------------------|
 |                                                                                 |
e|------------------|------------------|------5---5-------5--|--3---3---3------3---|
B|------5--5-----5--|------6---6-----6-|----7---7-------7----|----5---5------5-----|
G|----5--5-----5----|----7---7-----7---|--5-----------5------|--5----------5-------|
D|--7--------7------|--8---------8-----|---------------------|---------------------|
A|------------------|------------------|---------------------|---------------------|
E|------------------|------------------|---------------------|---------------------|

e|------------------|------------------|---------------------|-------|
B|------------------|------------------|---------------------|-------|
G|--5--3--2-----3-2-|--3--2------------|--2--------------2---|--0----|
D|------------------|-------3------0-3-|----3----------3-----|-------|
A|--0---------------|--1---------------|-------------3-------|-------|
D|------------------|------------------|--3-----3------------|--5----|
 |                                                                   |
e|------------------|------------------|------5---5-------5--|--3----|
B|------5--5-----5--|------6---6-----6-|----7---7-------7----|--5----|
G|----5--5-----5----|----7---7-----7---|--5-----------5------|--5----|
D|--7--------7------|--8---------8-----|---------------------|-------|
A|------------------|------------------|---------------------|-------|
E|------------------|------------------|---------------------|-------|

Order:

Riff 1    (2 times)
Riff 2    (2 times)
Riff 3    (2 times)
Riff 2    (4 times)
Riff 3    (2 times)             


Lyric:
there's no-one left in the world
that i can hold onto
there is really no-one left at all
there is only you
and if you leave me now
you leave all that we were
undone
there is really no-one left
you are the only one

and still the hardest part for you
to put your trust in me
i love you more than i can say
why won't you just believe?

=======

Well, I don't like how Mauricio's tab sounds,
so I made it by myself. 
I think it sounds great. I tried to tab every
piano sound, hope you like this great song.
Corrections, the_unplugged_hobbit@hotmail.com
Diego Perri
Related for Trust tab