Song name
# A B C D E F G H I J K L M N O P Q R S T U V W X Y Z

Cure - Alt End tab

----------------------------------------------------------------------------
			  Alt.end - The Cure
----------------------------------------------------------------------------
Tabbed by: Emo XD (Marcus David Young)

Tuning: Standard, EADGBe

Hey this is my first tab so please er...don't poke fun if it's bad just inform me of my 
XD

INTRO/VERSE:

e|-------------------------------------------------------------------------|
B|-------------------------------------------------------------------------|
G|------2-------4-------5-----5--------2-------3-------7-----7-------------|
D|----2-------2-------4-----4--------2-------2-------4-----4---------------|
A|--0-----0-3-----3-5-----5--------0-----0-3-----3-5-----5-----------------|
E|-------------------------------------------------------------------------|

CHORUS:

Am, C, D

SOLO:

Am, E, C

e|-------12---8--------8---7--------12---8--------8---7--------------------|
B|--10------------10-----------10------------10----------------------------|
G|-------------------------------------------------------------------------|
D|-------------------------------------------------------------------------|
A|-------------------------------------------------------------------------|
E|-------------------------------------------------------------------------|
Tap to rate this tab
 
# A B C D E F G H I J K L M N O P Q R S T U V W X Y Z