Song name
# A B C D E F G H I J K L M N O P Q R S T U V W X Y Z

Cure - The End Of The World tab

The Cure - The End of the World
tabbed by Victor

Well for the verse I've figured out this:

Part 1) Verse

-----D5-----------------B5----------------F#5------------------G5-------

E-----------------|-----------------|-2-2-2-2-2-2-2-2-|-3-3-3-3-3-3-3-3-|
A-5-5-5-5-5-5-5-5-|-2-2-2-2-2-2-2-2-|-4-4-4-4-4-4-4-4-|-5-5-5-5-5-5-5-5-|
D-7-7-7-7-7-7-7-7-|-4-4-4-4-4-4-4-4-|-4-4-4-4-4-4-4-4-|-5-5-5-5-5-5-5-5-|
G-7-7-7-7-7-7-7-7-|-4-4-4-4-4-4-4-4-|-----------------|-----------------|
B-----------------|-----------------|-----------------|-----------------|
e-----------------|-----------------|-----------------|-----------------|

Part 2) End of Verse

then when he sings: "all you wanted" He plays something like that:

D5 (x577xx), E'5 (x799xx) F'#5(x 9 11 11 xx), G'5 (x 10 12 12 xx)

Part 3
and then:

...love you more

----G5-------------------E5---------

E-3-3-3-3-3-3-3-3-|-0-0-0-0-0-0-0-0-|
A-5-5-5-5-5-5-5-5-|-2-2-2-2-2-2-2-2-|
D-5-5-5-5-5-5-5-5-|-2-2-2-2-2-2-2-2-| Play this part 2 times
G-----------------|-----------------|
B-----------------|-----------------|
e-----------------|-----------------|

You want me to cry...

------G5-----------------A5----------

E-3-3-3-3-3-3-3-3-|-5-5-5-5-5-5-5-5-|
A-5-5-5-5-5-5-5-5-|-7-7-7-7-7-7-7-7-|
D-5-5-5-5-5-5-5-5-|-7-7-7-7-7-7-7-7-| Play this part 3 times
G-----------------|-----------------|
B-----------------|-----------------|
e-----------------|-----------------|

Back to Verse (Part 1) without Part 2

After Verse comes Part 3


"You couldn't loooooooooooooooooove ... me more..." (while keyboard plays solo) It's 
1 again


-----D5-----------------B5----------------F#5------------------G5-------

E-----------------|-----------------|-2-2-2-2-2-2-2-2-|-3-3-3-3-3-3-3-3-|
A-5-5-5-5-5-5-5-5-|-2-2-2-2-2-2-2-2-|-4-4-4-4-4-4-4-4-|-5-5-5-5-5-5-5-5-|
D-7-7-7-7-7-7-7-7-|-4-4-4-4-4-4-4-4-|-4-4-4-4-4-4-4-4-|-5-5-5-5-5-5-5-5-|
G-7-7-7-7-7-7-7-7-|-4-4-4-4-4-4-4-4-|-----------------|-----------------| 1x
B-----------------|-----------------|-----------------|-----------------|
e-----------------|-----------------|-----------------|-----------------|

and then Part 2, 2 times:

D5 (x577xx), E'5(x799xx), F'#5(x 9 11 11 xx), G'5(x 10 12 12 xx)


after the keyboard solo:

"I couldn't love you more, you want me to lie..."

E-3-3-3-3-3-3-3-3-|-5-5-5-5-5-5-5-5-|
A-5-5-5-5-5-5-5-5-|-7-7-7-7-7-7-7-7-|
D-5-5-5-5-5-5-5-5-|-7-7-7-7-7-7-7-7-| Play this part 3 times
G-----------------|-----------------|
B-----------------|-----------------|
e-----------------|-----------------|


"wwwwwwwhooooooooooooooooouuuuuuuuoooooooooooo"


E-7-7-7-7-7-7-7-7-|-3-3-3-3-3-3-3-3-|
A-9-9-9-9-9-9-9-9-|-5-5-5-5-5-5-5-5-|
D-9-9-9-9-9-9-9-9-|-5-5-5-5-5-5-5-5-| Play this part 2 times
G-----------------|-----------------|
B-----------------|-----------------|
e-----------------|-----------------|


"Maybe we didn't understand"

E-2-2-2-2-2-2-2-2-|-5-5-5-5-5-5-5-5-|
A-4-4-4-4-4-4-4-4-|-7-7-7-7-7-7-7-7-|
D-4-4-4-4-4-4-4-4-|-7-7-7-7-7-7-7-7-| Play this part 2 times
G-----------------|-----------------|
B-----------------|-----------------|
e-----------------|-----------------|

"wwwwwwwhooooooooooooooooouuuuuuuuoooooooooooo"


E-7-7-7-7-7-7-7-7-|-3-3-3-3-3-3-3-3-|
A-9-9-9-9-9-9-9-9-|-5-5-5-5-5-5-5-5-|
D-9-9-9-9-9-9-9-9-|-5-5-5-5-5-5-5-5-| Play this part 2 times
G-----------------|-----------------|
B-----------------|-----------------|
e-----------------|-----------------|

"Maybe we didn't understand"

E-2-2-2-2-2-2-2-2-|-5-5-5-5-5-5-5-5-|
A-4-4-4-4-4-4-4-4-|-7-7-7-7-7-7-7-7-|
D-4-4-4-4-4-4-4-4-|-7-7-7-7-7-7-7-7-| Play this part 2 times
G-----------------|-----------------|
B-----------------|-----------------|
e-----------------|-----------------|


Back to verse:


Part 1) Verse

-----D5-----------------B5----------------F#5------------------G5-------

E-----------------|-----------------|-2-2-2-2-2-2-2-2-|-3-3-3-3-3-3-3-3-|
A-5-5-5-5-5-5-5-5-|-2-2-2-2-2-2-2-2-|-4-4-4-4-4-4-4-4-|-5-5-5-5-5-5-5-5-|
D-7-7-7-7-7-7-7-7-|-4-4-4-4-4-4-4-4-|-4-4-4-4-4-4-4-4-|-5-5-5-5-5-5-5-5-|
G-7-7-7-7-7-7-7-7-|-4-4-4-4-4-4-4-4-|-----------------|-----------------|
B-----------------|-----------------|-----------------|-----------------|
e-----------------|-----------------|-----------------|-----------------|


and then:

...love you more

----G5-------------------E5---------

E-0-0-0-0-0-0-0-0-|-3-3-3-3-3-3-3-3-|
A-2-2-2-2-2-2-2-2-|-5-5-5-5-5-5-5-5-|
D-2-2-2-2-2-2-2-2-|-5-5-5-5-5-5-5-5-| Play this part until the song ends,
G-----------------|-----------------|the final chord is G5(355xxx)
B-----------------|-----------------|
e-----------------|-----------------|
Tap to rate this tab
 
# A B C D E F G H I J K L M N O P Q R S T U V W X Y Z