Song name
# A B C D E F G H I J K L M N O P Q R S T U V W X Y Z

Cure - Lets Go To Bed tab

-------------------------------------------------------------------------------
			     LET'S GO TO BED - The Cure
-------------------------------------------------------------------------------
Tabbed by: sattelitecity
Email: batchie_says_let_there_be_rock@hotmail.com

Any comment or suggestions would be great, and this is just the studio version for while 
working on tabbing the live version, which has much more guitar and is much more fun to 
:)

Tuning: standard

Intro:

  doo, doo, doo, doo, doo, doo, doo, doo, doo, doo, doo, doo, doo, doo, doo
  .    .    .    .    .    .    .    .    .    .    .    .    .    .
e|-------------------------------------------------------------------------|
B|----------6----8--------------6--------------6---------8-----------------|
G|5----8--------------5----8---------5----5---------8---------5----8----7--|
D|-------------------------------------------------------------------------|
A|-------------------------------------------------------------------------|
E|-------------------------------------------------------------------------|

No guitar in verse(.17).
let me take your hands, I'm shaking like milk,
turning, turning blue, all over the windows and the floors,
fires outside in the sky, look as perfect as cats,
the two of us together again, it's just the same, a stupid game,

Pre-chorus(.47):

   but I don't care if you don't,      and I don't feel if you don't,
   W H Q H Q H H H   W H Q H Q H H H   W H Q H Q H H H   W H Q H Q H H H
e|-6-6-6-6-6-6-6-6---3-3-3-3-3-3-3-3---6-6-6-6-6-6-6-6---1-1-1-1-1-1-1-1---|
B|-6-6-6-6-6-6-6-6---3-3-3-3-3-3-3-3---6-6-6-6-6-6-6-6---1-1-1-1-1-1-1-1---|
G|-8-8-8-8-8-8-8-8---5-5-5-5-5-5-5-5---8-8-8-8-8-8-8-8---1-1-1-1-1-1-1-1---|
D|-8-8-8-8-8-8-8-8---5-5-5-5-5-5-5-5---8-8-8-8-8-8-8-8---3-3-3-3-3-3-3-3---|
A|-6-6-6-6-6-6-6-6---3-3-3-3-3-3-3-3---6-6-6-6-6-6-6-6---3-3-3-3-3-3-3-3---|
E|-6-6-6-6-6-6-6-6---3-3-3-3-3-3-3-3---6-6-6-6-6-6-6-6---1-1-1-1-1-1-1-1---|


 & I don't want it if you don't, & I won't say it if you won't say it first,
   W H Q H Q H H H  W H Q H Q H H H  W H Q H Q H H H (H)H+Q H+Q H+Q H H H+Q
e|-3-3-3-3-3-3-3-3--4-4-4-4-4-4-4-4--6-6-6-6-6-6-6-6----6---6---6---6-6-6|
B|-3-3-3-3-3-3-3-3--4-4-4-4-4-4-4-4--6-6-6-6-6-6-6-6----6---6---6---6-6-6|
G|-3-3-3-3-3-3-3-3--4-4-4-4-4-4-4-4--6-6-6-6-6-6-6-6----6---6---6---6-6-6|
D|-5-5-5-5-5-5-5-5--6-6-6-6-6-6-6-6--8-8-8-8-8-8-8-8----8---8---8---8-8-8|
A|-5-5-5-5-5-5-5-5--6-6-6-6-6-6-6-6--8-8-8-8-8-8-8-8----8---8---8---8-8-8|
E|-3-3-3-3-3-3-3-3--4-4-4-4-4-4-4-4--6-6-6-6-6-6-6-6----6---6---6---6-6-6|


Chorus(1.02):

  doo, doo, doo, doo, doo, doo, doo, doo, doo, doo, doo, doo, doo, doo, doo
  .    .    .    .    .    .    .    .    .    .    .    .    .    .
e|-------------------------------------------------------------------------|
B|----------6----8--------------6--------------6---------8-----------------|
G|5----8--------------5----8---------5----5---------8---------5----8----7--|
D|-------------------------------------------------------------------------|
A|-------------------------------------------------------------------------|
E|-------------------------------------------------------------------------|

Verse 2(1.17):

you think you're tired now, but wait until three,
laughing at the christmas lights, you remember from december,
all of this then back again, another girl, another name,
stay alive and stay the same, it's a stupid game, stupid game,


Pre-chorus(1.47):

   but I don't care if you don't,      and I don't feel if you don't,
   W H Q H Q H H H   W H Q H Q H H H   W H Q H Q H H H   W H Q H Q H H H
e|-6-6-6-6-6-6-6-6---3-3-3-3-3-3-3-3---6-6-6-6-6-6-6-6---1-1-1-1-1-1-1-1---|
B|-6-6-6-6-6-6-6-6---3-3-3-3-3-3-3-3---6-6-6-6-6-6-6-6---1-1-1-1-1-1-1-1---|
G|-8-8-8-8-8-8-8-8---5-5-5-5-5-5-5-5---8-8-8-8-8-8-8-8---1-1-1-1-1-1-1-1---|
D|-8-8-8-8-8-8-8-8---5-5-5-5-5-5-5-5---8-8-8-8-8-8-8-8---3-3-3-3-3-3-3-3---|
A|-6-6-6-6-6-6-6-6---3-3-3-3-3-3-3-3---6-6-6-6-6-6-6-6---3-3-3-3-3-3-3-3---|
E|-6-6-6-6-6-6-6-6---3-3-3-3-3-3-3-3---6-6-6-6-6-6-6-6---1-1-1-1-1-1-1-1---|


& I don't want it if you don't, & I won't play it if you won't play it first
   W H Q H Q H H H  W H Q H Q H H H  W H Q H Q H H H (H)H+Q H+Q H+Q H H H+Q
e|-3-3-3-3-3-3-3-3--4-4-4-4-4-4-4-4--6-6-6-6-6-6-6-6----6---6---6---6-6-6|
B|-3-3-3-3-3-3-3-3--4-4-4-4-4-4-4-4--6-6-6-6-6-6-6-6----6---6---6---6-6-6|
G|-3-3-3-3-3-3-3-3--4-4-4-4-4-4-4-4--6-6-6-6-6-6-6-6----6---6---6---6-6-6|
D|-5-5-5-5-5-5-5-5--6-6-6-6-6-6-6-6--8-8-8-8-8-8-8-8----8---8---8---8-8-8|
A|-5-5-5-5-5-5-5-5--6-6-6-6-6-6-6-6--8-8-8-8-8-8-8-8----8---8---8---8-8-8|
E|-3-3-3-3-3-3-3-3--4-4-4-4-4-4-4-4--6-6-6-6-6-6-6-6----6---6---6---6-6-6|


Chorus(2.03):

  doo, doo, doo, doo, doo, doo, doo, doo, doo, doo, doo, doo, doo, doo, doo
  .    .    .    .    .    .    .    .    .    .    .    .    .    .
e|-------------------------------------------------------------------------|
B|----------6----8--------------6--------------6---------8-----------------|
G|5----8--------------5----8---------5----5---------8---------5----8----7--|
D|-------------------------------------------------------------------------|
A|-------------------------------------------------------------------------|
E|-------------------------------------------------------------------------|


Verse 3(2.18):
you can't even see now, so you ask me the way,
you wonder if it's real, because it couldn't be rain
through the right doorway, and into the white room,
it used to be the dust that would lay here, when I came here alone


Pre-chorus(2.48):

   but I don't care if you don't,      and I don't feel if you don't,
   W H Q H Q H H H   W H Q H Q H H H   W H Q H Q H H H   W H Q H Q H H H
e|-6-6-6-6-6-6-6-6---3-3-3-3-3-3-3-3---6-6-6-6-6-6-6-6---1-1-1-1-1-1-1-1---|
B|-6-6-6-6-6-6-6-6---3-3-3-3-3-3-3-3---6-6-6-6-6-6-6-6---1-1-1-1-1-1-1-1---|
G|-8-8-8-8-8-8-8-8---5-5-5-5-5-5-5-5---8-8-8-8-8-8-8-8---1-1-1-1-1-1-1-1---|
D|-8-8-8-8-8-8-8-8---5-5-5-5-5-5-5-5---8-8-8-8-8-8-8-8---3-3-3-3-3-3-3-3---|
A|-6-6-6-6-6-6-6-6---3-3-3-3-3-3-3-3---6-6-6-6-6-6-6-6---3-3-3-3-3-3-3-3---|
E|-6-6-6-6-6-6-6-6---3-3-3-3-3-3-3-3---6-6-6-6-6-6-6-6---1-1-1-1-1-1-1-1---|


& I don't want it if you don't, & I won't play it if you won't play it fir
   W H Q H Q H H H  W H Q H Q H H H  W H Q H Q H H H (H)H+Q H+Q H+Q H H H+Q
e|-3-3-3-3-3-3-3-3--4-4-4-4-4-4-4-4--6-6-6-6-6-6-6-6----6---6---6---6-6-6|
B|-3-3-3-3-3-3-3-3--4-4-4-4-4-4-4-4--6-6-6-6-6-6-6-6----6---6---6---6-6-6|
G|-3-3-3-3-3-3-3-3--4-4-4-4-4-4-4-4--6-6-6-6-6-6-6-6----6---6---6---6-6-6|
D|-5-5-5-5-5-5-5-5--6-6-6-6-6-6-6-6--8-8-8-8-8-8-8-8----8---8---8---8-8-8|
A|-5-5-5-5-5-5-5-5--6-6-6-6-6-6-6-6--8-8-8-8-8-8-8-8----8---8---8---8-8-8|
E|-3-3-3-3-3-3-3-3--4-4-4-4-4-4-4-4--6-6-6-6-6-6-6-6----6---6---6---6-6-6|


Chorus(2.03):

  hir- hir-hir-hirst,           let's go to bed
  doo, doo, doo, doo, doo, doo, doo, doo, doo, doo, doo, doo, doo, doo, doo
  .    .    .    .    .    .    .    .    .    .    .    .    .    .
e|-------------------------------------------------------------------------|
B|----------6----8--------------6--------------6---------8-----------------|
G|5----8--------------5----8---------5----5---------8---------5----8----7--|
D|-------------------------------------------------------------------------|
A|-------------------------------------------------------------------------|
E|-------------------------------------------------------------------------|

  o-ho-ho-ho-ho-o,              let's go to bed
  doo, doo, doo, doo, doo, doo, doo, doo, doo, doo, doo, doo, doo, doo, doo
  .    .    .    .    .    .    .    .    .    .    .    .    .    .
e|-------------------------------------------------------------------------|
B|----------6----8--------------6--------------6---------8-----------------|
G|5----8--------------5----8---------5----5---------8---------5----8----7--|
D|-------------------------------------------------------------------------|
A|-------------------------------------------------------------------------|
E|-------------------------------------------------------------------------|


Outro(3.19):

  doo, doo, doo, doo, doo, doo, doo, doo, doo, doo, doo, doo, doo, doo, doo
  .    .    .    .    .    .    .    .    .    .    .    .    .    .
e|-------------------------------------------------------------------------|
B|----------6----8--------------6--------------6---------8-----------------|
G|5----8--------------5----8---------5----5---------8---------5----8----7--|
D|-------------------------------------------------------------------------|
A|-------------------------------------------------------------------------|
E|-------------------------------------------------------------------------|

                                let's go to bed
  doo, doo, doo, doo, doo, doo, doo, doo, doo, doo, doo, doo, doo, doo, doo
  .    .    .    .    .    .    .    .    .    .    .    .    .    .
e|-------------------------------------------------------------------------|
B|----------6----8--------------6--------------6---------8-----------------|
G|5----8--------------5----8---------5----5---------8---------5----8----7--|
D|-------------------------------------------------------------------------|
A|-------------------------------------------------------------------------|
E|-------------------------------------------------------------------------|

| .  staccato
| /  slide up
| \  slide down
| h  hammer-on
| p  pull-off
| ~  vibrato
| +  harmonic
| x  Mute note
===============================================================================
Tap to rate this tab
# A B C D E F G H I J K L M N O P Q R S T U V W X Y Z