Song name
# A B C D E F G H I J K L M N O P Q R S T U V W X Y Z

Cure - Just Like Heaven Acoustic tab

This is how Porl plays it on MTV Unplugged

E|--------------------------------------------|
B|-14-14-12-12-10-9-9-7-7-5-3-3-2-3-0-0-----0-|
G|--------------------------------------2-2---|  x2
D|--------------------------------------------|
A|--------------------------------------------|
E|--------------------------------------------|

E|---------------------------------------------------|
B|-2-2-3-3-5-7-7-9-9-10-12-12-14-14-15-17-17-15-15-14|
G|---------------------------------------------------| x1
D|---------------------------------------------------|
A|---------------------------------------------------|
E|---------------------------------------------------|

E|--------------------------------------------|
B|-14-14-12-12-10-9-9-7-7-5-3-3-2-3-0-0-----0-|
G|--------------------------------------2-2---|  x1
D|--------------------------------------------|
A|--------------------------------------------|
E|--------------------------------------------|
Tap to rate this tab
 
# A B C D E F G H I J K L M N O P Q R S T U V W X Y Z