Guitaretab - guitar tabs
Song name
# A B C D E F G H I J K L M N O P Q R S T U V W X Y Z

Cure - All Cats Are Grey tab

From: Loc
septlions@yahoo.fr
Hello
Excuse my english, Im french
The first tab on the site is for bass, this one is for guitar
Only the chords, listen to the song to play the rythme
Enjoy.
[ Tab from: http://www.guitaretab.com/c/cure/89648.html ]
Capo on second fret
(the numbers dont count the fact there is a  capo: 2 is really the second fret )
Intro and verse
e|--------------------------------------------------------------------|
B|x----x----x--3------------------------------------------------------|
G|9---9----7---2------------------------------------------------------|
D|9---6----7---4------------------------------------------------------|
A|7---7----5---2------------------------------------------------------|
E|--------------------------------------------------------------------|
then
e|--------------------------------------------------------------------|
B|-5--3---5---7----8---7--8---10--------------------------------------|
G|-x--2---x----x---x---x--x---x---------------------------------------|
D|-5--4---5----7---9-- 7--9-- 11--------------------------------------|
A|-3--2---3----5---7- -5--7---9---------------------------------------|
E|--------------------------------------------------------------------|

then
e|------------------------------------------------------------------|
B|--5---3-----------------------------------------------------------|
G|--x---2-----x-----------------------------------------------------|
D|--5---4-----5-----------------------------------------------------|
A|--3---2-----5-----------------------------------------------------|
E|----------- 3-----------------------------------------------------|

If you have any tabs about rock/ pop tabs you want to share, please do not hesitate to 
send them to me:
septlions@yahoo.fr
Related for All Cats Are Grey tab