Song name
# A B C D E F G H I J K L M N O P Q R S T U V W X Y Z

Cure - Always With Me tab

INTRO AND START

e|-----0------0------0----------0--3----0-----3--------0-----------|
B|---1-----1------1------1--1-3--1--------3----3---1--------1-0----|
G|---0-----0------0------0------------0-----0----0---2----2--------|
D|-----------------------------------2-------------------2---------|
A|-3-----3------3------3--------3---------2--------0---------------|
E|----------------------------------------------3--------------0---|

e|----------------------------0-1--1-0----------|
B|-----1-0-----0-1-3-----1-3---3-------3-1-3----|
G|---0-----2---------0---------2----------------|
D|--2--------3---------2-------0----------------|
A|-2--------------------------------------------|
E|---------1---------0----------------------3---|

e|-----0---3----0-----3--------------------|
B|-1-3---1--------3-----3---1-----0-1------|
G|------------0-----0-----0---2-2-----0----|
D|----------2------------------------------|
A|-----3--------------------0--------------|
E|----------------2-----3--------------0---|

e|---------------------0--1---1-0---------|
B|-------0-1-3-----1-3----3-------3-1-1---|
G|-0-2---------0----------2---------------|
D|-----3---------2--------0---------------|
A|-------------------------------------3--|
E|---1---------0--------------------------|

e|-0-1-3-3-3-3-3-5-3-1-0-0-0-0-0-0-1-0----------------------0--0------|
B|--------------------------------------3-1-1-1-0--0-0-1-3-3--3--3----|
G|------------------------------------------------2-------------------|
D|--------------------------------------------------------------------|
A|-----3-----3------------0-----0---------0---0-----------------------|
E|--------------------------------------------------------3-------3---|


e|-0-1-3-3-3-3-3-5-3-1-0-0-0-0-0-1-0----------------------0-------------|
B|------------------------------------3-1-1-1-0--0-0-1-3-3---3-1-1------|
G|----------------------------------------------2-----------------------|
D|----------------------------------------------------------------------|
A|-----3------3---------0-----0---------0---0---------------------3-----|
E|-------------------------------------------------------3--------------|

REPEAT:

e|-----0------0------0----------0--3----0-----3--------0-----------|
B|---1-----1------1------1--1-3--1--------3----3---1--------1-0----|
G|---0-----0------0------0------------0-----0----0---2----2--------|
D|-----------------------------------2-------------------2---------|
A|-3-----3------3------3--------3---------2--------0---------------|
E|----------------------------------------------3--------------0---|

e|----------------------------0-1--1-0----------|
B|-----1-0-----0-1-3-----1-3---3-------3-1-3----|
G|---0-----2---------0---------2----------------|
D|--2--------3---------2-------0----------------|
A|-2--------------------------------------------|
E|---------1---------0----------------------3---|

e|-----0---3----0-----3--------------------|
B|-1-3---1--------3-----3---1-----0-1------|
G|------------0-----0-----0---2-2-----0----|
D|----------2------------------------------|
A|-----3--------------------0--------------|
E|----------------2-----3--------------0---|

e|---------------------0--1---1-0---------|
B|-------0-1-3-----1-3----3-------3-1-1---|
G|-0-2---------0----------2---------------|
D|-----3---------2--------0---------------|
A|-------------------------------------3--|
E|---1---------0--------------------------|


e|-0-1-3-3-3-3-3-5-3-1-0-0-0-0-0-0-1-0----------------------0--0------|
B|--------------------------------------3-1-1-1-0--0-0-1-3-3--3--3----|
G|------------------------------------------------2-------------------|
D|--------------------------------------------------------------------|
A|-----3-----3------------0-----0---------0---0-----------------------|
E|--------------------------------------------------------3-------3---|


e|-0-1-3-3-3-3-3-5-3-1-0-0-0-0-0-1-0----------------------0-------------|
B|------------------------------------3-1-1-1-0--0-0-1-3-3---3-1-1------|
G|----------------------------------------------2-----------------------|
D|----------------------------------------------------------------------|
A|-----3------3---------0-----0---------0---0---------------------3-----|
E|-------------------------------------------------------3--------------|
Tap to rate this tab
 
# A B C D E F G H I J K L M N O P Q R S T U V W X Y Z