Song name
# A B C D E F G H I J K L M N O P Q R S T U V W X Y Z

Curfew - Like Mike tab

Like Mike (formerly American Hat)
C U R F E W (formerly Navajo)
Tabbed by Aaron Bridgeman (rokken@sicness.net)

http://bogans.arecool.net

A hell sick Aussie song. Not heard by that many people, but I
recommend checking it out or requesting it on JJJ.

KEY
/ = slide up
^ - bend up a bit
x = dead note

Drop D tuning (D A D G B e)

Clean (actually played by bass)
e|------------------|
B|------------------|
G|------------------|
D|------------------|
A|------------------|
D|-0-0-12-10-9-8/10-|

Distorted as
e|--------------------|
B|--------------------|
G|--------------------|
D|-0-0----3-0-3-0-3/5-|
A|-0-0----3-0-3-0-3/5-|
D|-0-0----3-0-3-0-3/5-|

Verse starts same as above but don't ring those D5 chords...
then...
e|-----------------------|
B|------12^--------------|
G|-----------------------|
D|-0-0-------3-0-3-0-3/5-|
A|-0-0-------3-0-3-0-3/5-|
D|-0-0-------3-0-3-0-3/5-|

Every body wants to be like Mike...
e|-x-x-x-x-x-x-x-x-x-x-x-x-x-x-x-x-|
B|-x-x-x-x-x-x-x-x-x-x-x-x-x-x-x-x-|
G|-x-x-x-x-x-x-x-x-x-x-x-x-x-x-x-x-|
D|-x-x-x-x-x-x-x-x-x-x-x-x-x-x-x-x-|
A|-x-x-x-x-x-x-x-x-x-x-x-x-x-x-x-x-|
D|-x-x-x-x-x-x-x-x-x-x-x-x-x-x-x-x-|

Everybody...
e|-----|
B|-----|
G|-----|
D|-0-0-|
A|-0-0-|
D|-0-0-|

Heavy bit...
e|------------------|
B|------------------|
G|------------------|
D|-0-0-12-10-9-8/10-|
A|-0-0-12-10-9-8/10-|
D|-0-0-12-10-9-8/10-|

There you go, all the riffs you need.
Tap to rate this tab
# A B C D E F G H I J K L M N O P Q R S T U V W X Y Z