Song name
# A B C D E F G H I J K L M N O P Q R S T U V W X Y Z

Current-93 - Soft Black Stars tab

Band/Song: Current 93 - Soft Black Stars
Album: Soft Black Stars

Tabbed by: RhoninX - http://profile.ultimate-guitar.com/RhoninX/
Email: lisekpl(a)o2.pl
Date: 11.08.2009

Tuning: Standard


That's the main melody transcribed for the solo guitar. No background inside!

     E        E   E   E   E   Q      Q        Q     Q    Q.      E   
E||-----||--------------------------------|-------------------------|
B||-----||---10--12--13--10--12~----------|--10----12---------------|
G||--9--||*-------------------------12----|--------------9~------9--|
D||-----||*-------------------------------|-------------------------|
A||-----||--------------------------------|-------------------------|
E||-----||--------------------------------|-------------------------|


   E   E   E   E   Q      Q        Q     Q    H          
-------------------------------|------------------------|
--10--12--13--10--12~----------|--10----12--------------|
-------------------------12----|--------------9~--------|
-------------------------------|------------------------|
-------------------------------|------------------------|
-------------------------------|------------------------|


   Q        E   E   Q.       E      Q     Q     Q     E  E   
--12br~----12--10---------------|---------------------------|
-------------------13~------12--|--13----10----12-----------|
--------------------------------|--------------------12--9--|
--------------------------------|---------------------------|
--------------------------------|---------------------------|
--------------------------------|---------------------------|


   E   E   E   E   Q      Q        Q    Q     Q.      E      
-------------------------------|---------------------------||
--10--12--13--10--12~----------|--10----8----10------------||
-------------------------12----|---------------------(9)--*||
-------------------------------|--------------------------*||
-------------------------------|---------------------------||
-------------------------------|---------------------------||




Duration Legend
---------------
H - half
Q - quarter
E - 8th
. - note dotted


Tablature Legend
----------------
(n) - ghost note
br - bendRelease
~ - vibrato
Tap to rate this tab
# A B C D E F G H I J K L M N O P Q R S T U V W X Y Z