Song name
# A B C D E F G H I J K L M N O P Q R S T U V W X Y Z

Current-93 - The Inmost Light tab

Band/Song: Current 93 - The Inmost Light
Album: All The Pretty Little Horses

Tabbed by: RhoninX - http://profile.ultimate-guitar.com/RhoninX/
Email: lisekpl(a)o2.pl
Date: 22.11.2009

Tuning: Standard


Repeat this riff throughout the whole song.

     ^    ^  v    ^  v  ^     ^    ^  v    ^  v  ^   
     Q    E  Q    E  E  E     Q    E  Q    E  E  E   
E||--0-------0-------------|--0-------0-------------|
B||--1-------1----1--1--1--|--1-------1----1--1--1--|
G||--2----2--2----2--2--2--|--2----2--2----2--2--2--|
D||--2----2--2----2--2--2--|--2----2--2----2--2--2--|
A||--0----0-------0--0--0--|--0----0-------0--0--0--|
E||------------------------|------------------------|


  ^    ^  v    ^  v  ^     ^    ^  v    ^  v  ^   
  Q    E  Q    E  E  E     Q    E  Q    E  E  E   
--0---------------------|--0---------------------|
--0-------0-------------|--0-------0-------------|
--0-------0----0--0--0--|--0-------0----0--0--0--|
--0----0--0----0--0--0--|--2----2--2----2--2--2--|
--2----2--2----2--2--2--|--2----2--2----2--2--2--|
--3----3--3----3--3--3--|--0----0--0----0--0--0--|


  ^    ^  v    ^  v  ^     ^    ^  v    ^  v  ^   
  Q    E  Q    E  E  E     Q    E  Q    E  E  E   
--0-------0-------------|--0-------0-------------|
--1-------1----1--1--1--|--1-------1----1--1--1--|
--2----2--2----2--2--2--|--2----2--2----2--2--2--|
--2----2--2----2--2--2--|--2----2--2----2--2--2--|
--0----0-------0--0--0--|--0----0-------0--0--0--|
------------------------|------------------------|


  ^    ^  v    ^  v  ^     ^  v     ^  ^     ^       
  Q    E  Q    E  E  E     E  E  E  E  E  E  E  E    
--0---------------------|--------------------------||
--0-------0-------------|--3--3-----1--1-----------||
--0-------0----0--0--0--|--4--4-----2--2-----0-----||
--0----0--0----0--0--0--|--4--4-----2--2-----0-----||
--2----2--2----2--2--2--|--2--2-----0--0-----2-----||
--3----3--3----3--3--3--|--------------------3-----||




Duration Legend
---------------
Q - quarter
E - 8th

Tablature Legend
----------------
^ - brush up
v - brush down
Tap to rate this tab
# A B C D E F G H I J K L M N O P Q R S T U V W X Y Z