Song name
# A B C D E F G H I J K L M N O P Q R S T U V W X Y Z

Current-93 - A Lament For My Suzanne tab

Band/Song: Current 93 - A Lament for My Suzanne
Album: Thunder Perfect Mind

Tabbed by: RhoninX - http://profile.ultimate-guitar.com/RhoninX/
Email: lisekpl(a)o2.pl
Date: 04.04.2010

Tuning: Standard

Repeat this riff throughout the whole song.

     Q    H           Q    Q    Q       Q    H           Q    Q    S E.   
E||--3-------------|--3---------3----|----------------|--------------3---|
B||-------4--------|-------4---------|--4----1--------|--4----1----4-----|
G||----------------|-----------------|----------------|------------------|
D||--1----L--------|--1----L---------|----------------|------------------|
A||----------------|-----------------|--3----L--------|--3----L----------|
E||----------------|-----------------|----------------|------------------|


  Q    H           Q    Q    Q       Q    H           Q    Q    S E.    
--3-------------|--3---------3----|----------------|--------------3---||
-------4--------|-------4---------|--4----1--------|--4----1----4-----||
----------------|-----------------|----------------|------------------||
--1----L--------|--1----L---------|----------------|------------------||
----------------|-----------------|--3----L--------|--3----L----------||
----------------|-----------------|----------------|------------------||




Duration Legend
---------------
H - half
Q - quarter
E - 8th
S - 16th
. - note dotted


Tablature Legend
----------------
L - tied note
Tap to rate this tab
 
# A B C D E F G H I J K L M N O P Q R S T U V W X Y Z