Song name
# A B C D E F G H I J K L M N O P Q R S T U V W X Y Z

Current-93 - A Song For Douglas After Hes Dead tab

a song for douglas after he's dead
current 93
thunder perfect mind

intro
  Am
e|---------------------------------------------|
B|--------1-0----------------------1-0---------|
G|-2-22-2-----22-0-2----2---22-2-------22-0-2--|
D|------------------------2------2----2--------|
A|-----------------------0------0--------------|
E|---------------------------------------------|

verse
   Am       F        Dm          E
e|-0--0----------------------------------|
B|--1--1----1--1----------------0--0-----|
G|---2--2----2--2----2----2------1--1----|
D|------------3--3----3-0--3-0----2--2---|
A|---------------------------------------|
E|---------------------------------------|
Tap to rate this tab
 
# A B C D E F G H I J K L M N O P Q R S T U V W X Y Z