Song name
# A B C D E F G H I J K L M N O P Q R S T U V W X Y Z

Current-93 - Bind Your Tortoise Mouth tab

Artist: Current 93
Album: Black Ships Ate the Sky (2006)
Song: Bind Your Tortoise Mouth
Tabbed by: Jordan

Guitar 1
Tuning: EADGBe

-|-8-5-6---5-------|-------------5-6-|
-|-------8---6-8-6-|-5-5-6-6-8-8-----|
-|-----------------|-----------------|
-|-----------------|-----------------|
-|-----------------|-----------------|
-|-----------------|-----------------|

Repeats throughout the song. There are a few minor variations, but it mostly follows this pattern. 

An improvised line might look like this:

-|-8-8-6-6-5-------|-------------5-6-|
-|-----------6-8-6-|-5-5-6-6-8-6-----|
-|-----------------|-----------------|
-|-----------------|-----------------|
-|-----------------|-----------------|
-|-----------------|-----------------|

Guitar 2
Tuning: DADGBe

-|-----------------|-----------------|
-|-----------------|-----------------|
-|-----------------|-----------------|
-|-----------------|---0---0---0-----|
-|-----------------|-----------------|
-|-3---3---3---3-3-|-0---0---0---0-0-|

Repeats throughout the song with no variation.
Tap to rate this tab
 
# A B C D E F G H I J K L M N O P Q R S T U V W X Y Z