Song name
# A B C D E F G H I J K L M N O P Q R S T U V W X Y Z

Current-93 - Steven And I In The Field Of Stars tab

Help us improve GuitareTab! Take a short survey!
-------------------------------------------------------------------------------
     Steven and i in the Field of Stars - Current 93
-------------------------------------------------------------------------------
Tabbed by: Dominic Tucker	
Email: cursed_reverence@hotmail.com

Tuning: normal (capo on 5th fret)

this is the first half of the song

e|---5-------------------------------------5-----------------5-----------5-------------------|
B|------5----------------------------5-----------8-----5--------------5--------9-------------|
G|---------5--7-----7----5--------5-----5-----5--------------------5--------5-----------9----|
D|---------------7-------------7--------------------7-----7-----7-----------------9----------|
A|------------5-------9-----7--------------------7-----------8-----------------7-----7-------|
E|---5-------------------5-------------------------------------------------------------------|

e|---5--------5--------5------------------7---------7------------------------|
B|---------------------------9--------10-----9--10---------------------------|
G|------5--------5--------5--------9-----------------------------------------|
D|---------7--------7-----------9--------------------------------------------|
A|---8-----------------------7-----------------------------------------------|
E|---------------------------------------------------------------------------|

e|---8------------------------------------8--------------------------------------5---|
B|----------12------10-----10------8-------------12------10------10------9--7h9------|
G|-----------------------------------------------------------------------------------|
D|------10------10-----10------10-----10-----10------10------10------10--------------|
A|---8------8-------8------7--------------8------8-------8-------7-------------------|
E|-------------------------------------------------------------------------------5---|

| /  slide up
| \  slide down
| h  hammer-on
| p  pull-off
| ~  vibrato
| +  harmonic
| x  Mute note
===============================================================================
Related for Steven And I In The Field Of Stars tab