Song name
# A B C D E F G H I J K L M N O P Q R S T U V W X Y Z

Current-93 - All The World Makes Great Blood tab

-------------------------------------------------------------------------------
	     All The World Makes Great Blood - Current 93
-------------------------------------------------------------------------------
Tabbed by: Dominic Tucker
Email: cursed_reverence@hotmail.com

Tuning: standard

intro
e|-------------------------------------------------------------------|
B|---3--------3--3-----3--0--0--------0--1-----0-----0--------0------|
G|---------0--------0--------------0-----------------------0---------|
D|------2--------0--------------2-----------2-----2-----2------------|
A|---3-----------------------2-----------3-----------0---------------|
E|-------------------------------------------------------------------|

main tune
e|---------3-----2---------------------------------------------------|
B|---------3-----------3-----1--------0--0--------0------------------|
G|------------0-----2-----2--------0-----------0---------------------|
D|---------------0--------------2-----------2------------------------|
A|------2--------------------3-----------2---------------------------|
E|---3---------------------------------------------------------------|

===============================================================================
Tap to rate this tab
 
# A B C D E F G H I J K L M N O P Q R S T U V W X Y Z