Song name
# A B C D E F G H I J K L M N O P Q R S T U V W X Y Z

Current-93 - The Magical Bird In The Magical Woods tab

Help us improve GuitareTab! Take a short survey!
-------------------------------------------------------------------------------
     the magical bird in the magical woods - Current 93
-------------------------------------------------------------------------------
Tabbed by: Dominic Tucker
Email: cursed_reverence@hotmail.com

Tuning: standard

e|---3----4----3----3----4----3----1----4----3----4---------1----3---------|
B|---4----4----4----4----4----4----1----4----4----4---------1----4---------|
G|---5----5----3----5----5----3----1----5----3----5---------1----5---------|
D|---5----6----5----5----6----5----3----6----5----6---------3----5---------|
A|---3----6----6----3----6----6----3----6----6----6---------3----3---------|
E|---3----4----3----3----4----3----1----4----3----4----3----1----3---------|

===============================================================================
Related for The Magical Bird In The Magical Woods tab