Song name
# A B C D E F G H I J K L M N O P Q R S T U V W X Y Z

Current-93 - The Darkly Splendid World tab

-------------------------------------------------------------------------------
	     the darkly splendid world - current 93
-------------------------------------------------------------------------------
Tabbed by: Dominic Tucker
Email: cursed_reverence@hotmail.com

Tuning: standard

e|---------0-----------0-----------0-----------0-----------------|
B|------------0-----------0-----------0-----------0--------------|
G|---------------------------------------------------------------|
D|------2-----------2-----------2-----------2--------------------|
A|---0-----------0-----------------------------------------------|
E|---------------------------2-----------1-----------------------|

e|---------0-----------0-----------------------------------------|
B|------------0-----------0--------6-----------6p5--5------------|
G|------------------------------5-----5-------------7------------|
D|------2-----------2--------3--------------7--------------------|
A|---0-----------3-----------------------5-----------------------|
E|---------------------------------------------------------------|

| p  pull-off
===============================================================================
Tap to rate this tab
# A B C D E F G H I J K L M N O P Q R S T U V W X Y Z