Guitaretab - guitar tabs
Song name
# A B C D E F G H I J K L M N O P Q R S T U V W X Y Z

Current Swell - Od Ii tab

Current Swell Ė O.D. II

Intro:

repeat riff 1,2, 3   3x (0:00-0:25 sec)

  riff1              riff2                            riff3
-12--10-----------|---12--10------------------|----12--10------------------------------------|
----------12--10--|------------12--10p9h10p9--|--------------12--10p9h10p9--12--10-----------|
------------------|---------------------------|---------------------------------------12--9--|
------------------|---------------------------|----------------------------------------------|
------------------|---------------------------|----------------------------------------------|
------------------|---------------------------|----------------------------------------------|
(0:26sec)                                             riff3
----------------10-10|-----------------------|-12--10--------------------------------|
-----12--10-9--------|-----12ó10p9---ó10p9---|--------12--10p9h10p9--12--10----------|
--9------------------|--9----------9-------9-|--------------------------------12--9--|
---------------------|-----------------------|---------------------------------------|
---------------------|-----------------------|---------------------------------------|
---------------------|-----------------------|---------------------------------------|


A                                              E
Tossing and turning, well I canít get back to sleep (riff3)
A                                              E
Tossing and turning, well I canít get back to sleep (riff3)
     B                               A                      E
In trouble with the law again, this time I think Iím in too deep (riff3)
A                                                        E
Well it wasnít my fault I say, just trying to have some fun (riff3)
A                                                        E
Well it wasnít my fault I say, just trying to have some fun (riff3)
       B                          A                    E
So whatís the problem officer, if I ainít hurting any-one?
Check this out...
[ Tab from: http://www.guitaretab.com/c/current-swell/175068.html ]
solo:
(1:24sec)                                             riff3
----------------10-10b10-|-----------------------|--12--10---------------------------------|
-10s12---12--------------|-----------9-10-10p9---|----------12---10p9h10p9--12--10---------|
--------9----------------|---10p9-9--------------|-----------------------------------12--9-|
-------------------------|-----------------------|-----------------------------------------|
-------------------------|-----------------------|-----------------------------------------|
-------------------------|-----------------------|-----------------------------------------|
                                                       riff3
---------------------------|-------------------------|-12-10----------------------------|
-------10------------------|-----10------------------|-------12-10p9h10p9-12-10---------|
--7s9-----12--9--12p9h12p9-|-7s9---12--9--11p9h11p9--|----------------------------12--9-|
---------------------------|-------------------------|----------------------------------|
---------------------------|-------------------------|----------------------------------|
---------------------------|-------------------------|----------------------------------|
(1:40)                                             riff3
----------------------|-------------------------|-12--10--------------------------------|
----12--10p9----------|----10--9----------------|---------12-10p9h10p9--12--10----------|
-9------------11p9h11-|-9---------11--10p9h10p9-|---------------------------------12--9-|
----------------------|-------------------------|---------------------------------------|
----------------------|-------------------------|---------------------------------------|
----------------------|-------------------------|---------------------------------------|

So you know youíre not right you come to my house and you break down my door (riff3)

So you know youíre not right you come to my house and you break down my door (riff3)

So I hope to God Iím standing there, the day when you finally get yours (riff3)

I said I hope to God Iím standing there, the day when you finally get yours (riff3)
and youíll get yours..
Related for Od Ii tab