Song name
# A B C D E F G H I J K L M N O P Q R S T U V W X Y Z

Current Swell - Go On tab

This is my first tab so bear with me...

Current Swell- Go ON

Intro
e---------------------------------------------------------12\9-7-9-7/12-|
b-----------9---------------------------------------------12\9-7-9-7/12-|
g--9---9-h11---11-------9-11-9-11^--11-11^-9-------9--------------------|
d-----------------9-h11----------------------11-11----------------------|
a-----------------------------------------------------------------------|
e-----------------------------------------------------------------------|

e-12\9-7-9-7--12\9-7-5-5--14\12-9-12-9/12--9--9-h12--9-h12--9-h12-9-h12-|
b-12\9-7-9-7--12\9-7-5-5--14\12-9-12-9/12---12----12----12---12---------|
g-----------------------------------------------------------------------|
d-----------------------------------------------------------------------|
a-----------------------------------------------------------------------|
e-----------------------------------------------------------------------|


Chords
   E  B  Bb A
e--7--2--1--5--|
b--9--4--3--5--|
g--9--4--3--6--|
d--9--4--3--7--|
a--7--2--1--7--|
e--x--x--x--5--|
Tap to rate this tab
# A B C D E F G H I J K L M N O P Q R S T U V W X Y Z